rock
 
|tablatures   |lyrics   |discussion forums   |more tabs @ XGuitar.com

U2 tabs

All I Want Is You guitar tab

Author/Artist: U2
Title: All I Want Is You (Irving Plaza Version)
Transcribed by: Ben Aitken
Email: nakedeye515@aol.com

- This version is a good alternative if you only have one guitarist in your band
- Tune down half a step, and play with reverb and delay
- The verses are just what the Edge plays the first time through, but he improvises 
  with the same general ideas in mind

-|-----------------------------------------------------------0-------------|--
-|-3-3-------------3------------3----------3-------3-2---2-2-----3---3-----|--
-|-2-2----------2------------2----------2--------2---2---2-2-----2---2-----|--
-|-0-0-----------------0---0--------0----------0-----------------0---0---0-|--
-|-------------------------------------------------------------------------|--
-|-------------------------------------------------------------------------|--
  Intro

-|-----------------------------------------|------2---2-----2---2-------0---|-
-|-------2---2---2---2-------3---3---3---3-|----2---------2-----------3---3-|-
-|-----2-------2-----------2-------2-------|----------------------2---------|-
-|---------------------0-------------------|----------------------0---------|-
-|-0---------------------------------------|--------------------------------|-
-|-----------------------------------------|-2------------------------------|-
  1st Verse                              4x				  2x

-|---------------------------------0-----|-0-0-0-0---0-0---0-0-2---2-2-0---|--
-|-------2---2---2---2-------3---3-----3-|-2-2-0-2---0-2---0-2-3---3-3-3---|--
-|-2---2-------2-----------2-------------|-2-2-2-2---2-2---2-2-2---2-2-2---|--
-|---------------------0-----------------|-2-2-2-2---2-2---2-2-0---0-0-0---|--
-|---------------------------------------|-0-0-0-0---0-0---0-0-------------|--
-|---------------------------------------|---------------------------------|--
  Chorus								 2x

-|-----------------------0-------|---------2---2---2---2-------0-------|------
-|-2---2---2---2-------------3---|-2---2---------2-----------3-----3---|------
-|-2---2---2---2-----2-----------|-------------------------2-----------|------
-|-2---2---2---2---0-------------|-----------------------0-------------|------
-|-------------------------------|-------------------------------------|------
-|-------------------------------|-------------------------------------|------
  2nd Verse                    8x				     2x

-|-------------------------------0---------|-0-0-0-0---0-0---0-0-2---2-2-0--|-
-|-----2---2---2---2-------3---3-----3---3-|-2-2-0-2---0-2---0-2-3---3-3-3--|-
-|---2-------2-----------2-----------------|-2-2-2-2---2-2---2-2-2---2-2-2--|-
-|-------------------0---------------------|-2-2-2-2---2-2---2-2-0---0-0-0--|-
-|-0---------------------------------------|-0-0-0-0---0-0---0-0------------|-
-|-----------------------------------------|--------------------------------|-
  Chorus								  2x

-|------------------------3-3-3-3-3-3-----3-2---0-----|-----------------------
-|---------------3--------------------------------3---|-----------------------
-|-2-------------2----------------------------------2-|-----------------------
-|-2-------------0------------------------------------|-----------------------
-|-0--------------------------------------------------|-----------------------
-|----------------------------------------------------|-----------------------
  Bridge

-|-------0--------3---2-------|---------2----------------2-------|------------
-|------------2-----------3---|-----2-------2--------3-------3---|------------
-|-----2--------------------2-|-2----------------2---------------|------------
-|----------------------------|----------------------------------|------------
-|-0--------------------------|----------------------------------|------------
-|----------------------------|----------------------------------|------------
  3rd Verse                 8x                                 2x

-|---------------------------0-------|-0-0-0-0---0-0---0-0-2---2-2-0---|------
-|-2---2-2-2---2---2-3---3-3-3---3-3-|-2-2-0-2---0-2---0-2-3---3-3-3---|------
-|-2---2-2-2---2---2-2---2-2-2---2-2-|-2-2-2-2---2-2---2-2-2---2-2-2---|------
-|-2---2-2-2---2---2-0---0-0-0---0-0-|-2-2-2-2---2-2---2-2-0---0-0-0---|------
-|-0---0-0-0---0---0-----------------|-0-0-0-0---0-0---0-0-------------|------
-|-----------------------------------|---------------------------------|------
  Chorus                                                             2x

-|-----------------------------------|------------------------------------|---
-|-2---2-2-2---2---2-3---3-3-3---3-3-|-14---14-14---14---14-15---15-15-15-|---
-|-2---2-2-2---2---2-2---2-2-2---2-2-|-14---14-14---14---14-14---14-14-14-|---
-|-2---2-2-2---2---2-0---0-0-0---0-0-|------------------------------------|---
-|-0---0-0-0---0---0-----------------|------------------------------------|---
-|-----------------------------------|------------------------------------|---
  Outro                            2x                                   2x

-|-17---17---17---17---17-17-17---17---17---17-|------------------------------
-|-14---14---14---14---14-14-15---15---15---15-|------------------------------
-|-14---14---14---14---14-14-14---14---14---14-|------------------------------
-|---------------------------------------------|------------------------------
-|---------------------------------------------|------------------------------
-|---------------------------------------------|------------------------------


-|----17----17----17----17----17----17----17----17----17----17----17----17-|--
-|-17----17----17----17----17----17----17----17----17----17----17----17----|--
-|-------------------------------------------------------------------------|--
-|-------------------------------------------------------------------------|--
-|-------------------------------------------------------------------------|--
-|-------------------------------------------------------------------------|--
                                                                         2x

-|----17----17-------17----17----17-------20-------20-------20-------20----|--
-|-17----17----17-17----17----17----17-17----17-17----17-17----17-17----17-|--
-|-------------------------------------------------------------------------|--
-|-------------------------------------------------------------------------|--
-|-------------------------------------------------------------------------|--
-|-------------------------------------------------------------------------|--


-|-0---0---0---0---0-0-0---0---0---0---0-0-|----------------------------------
-|-2---2---2---2---2-2-3---3---3---3---3-3-|----------------------------------
-|-2---2---2---2---2-2-2---2---2---2---2-2-|----------------------------------
-|-2---2---2---2---2-2-0---0---0---0---0-0-|----------------------------------
-|-0---0---0---0---0-0---------------------|----------------------------------
-|-----------------------------------------|----------------------------------
                                         2x

-|--------------------------------14---14---14---14-14-|----------------------
-|-14---14---14---14---14-14-15---15---15---15---15-15-|----------------------
-|-14---14---14---14---14-14-14---14---14---14---14-14-|----------------------
-|-14---14---14---14---14-14-0----0----0----0----0--0--|----------------------
-|-0----0----0----0----0--0----------------------------|----------------------
-|-----------------------------------------------------|----------------------


-|-0--------------------0------------------------------|-0-----------------||-
-|-2--------------------3------------------------------|-2-----------------||-
-|-2--------------------2------------------------------|-2-----------------||-
-|-2--------------------0------------------------------|-2-----------------||-
-|-0---------------------------------------------------|-0-----------------||-
-|-----------------------------------------------------|-------------------||-
  development and support by
dmitry ivanov