rock
 
|tablatures   |lyrics   |discussion forums   |more tabs @ XGuitar.com

U2 tabs

All Because Of You bass tab

#---------------------------------PLEASE NOTE---------------------------------#
#This file is the author's own work and represents their interpretation of the#
#song. You may only use this file for private study, scholarship, or research.#
#-----------------------------------------------------------------------------#

Song: All Because Of You
Artist: U2
Album: How To Dismantle An Atomic Bomb
Tabbed by: Jase Warner (trip_through_your_wires@hotmail.com)

Standard Tuning (E,A,D,G)

Intro:

G|-------------|
D|*-----------*|
A|*-----------*|
E|-12-12-\\-7-\\-|

G|---------------------------------|---------------------------------|
D|*--------------------------------|--------------------------------*|
A|*--------------5---5-------------|---------------5---5------------*|
E|-0---0---#-3-----------3-5-3-5-\\-|-0---0---#-3-----------3-5-3-5-\\-|

G|---------------------------------|---------------------------------|
D|*--------------------------------|--------------------------------*|
A|*--------------5---5-------------|---------------5---5------------*|
E|-0---0---#-3-----------3-5-3-5-\\-|-0---0---#-3-----------3-5-3-5-\\-|

First Verse:
  <------------------------------rest------------------------------->
G|---------------------------------|---------------------------------|
D|*--------------------------------|--------------------------------*|
A|*--------------------------------|--------------------------------*|
E|---------------------------------|---------------------------------|
  <------------------------------rest------------------------------->
G|---------------------------------|---------------------------------|
D|*--------------------------------|--------------------------------*|
A|*--------------------------------|--------------------------------*|
E|---------------------------------|---------------------------------|

G|---------------------------------|---------------------------------|
D|*--------------------------------|--------------------------------*|
A|*--------------5--5-#------5-----|---------------5--5-#------5----*|
E|-0---0---#-0-----------0-5---5-\\-|-0---0---#-0-----------0-5---5-\\-|

G|---------------------------------|---------------------------------|
D|*--------------------------------|--------------------------------*|
A|*--------------5--5-#------5-----|---------------5--5-5-----------*|
E|-0---0---#-0-----------0-5---5---|-5---5---#-5-----------3---3--3\\-|

Chorus:

G|-----------------|-----------------|-----------------|-----------------|
D|*----------------|-----------------|-----------------|-----------------|
A|*5-5-5-5-5-5--4--|-----------------|-----------------|-----------------|
E|-----------------|-5--5-----5-5-5--|-7-7-7-7-7-7-7-5-|-5--5-----5-5-5--|


G|-----------------|-----------------|
D|*----------------|-----------------|
A|*----------------|-----------------|
E|-2-2-2-2-2-2-2-5-|-5--5-----5-5-5--|

Break:

G|---------------------------------|---------------------------------|
D|*--------------------------------|--------------------------------*|
A|*--------------5---5-------------|---------------5---5------------*|
E|-0---0---#-3-----------3-5-3-5-\\-|-0---0---#-3-----------3-5-3-5-\\-|

G|---------------------------------|---------------------------------|
D|*--------------------------------|--------------------------------*|
A|*--------------5---5-------------|---------------5---5------------*|
E|-0---0---#-3-----------3-5-3-5-\\-|-0---0---#-3-----------3-5-3-5-\\-|

Second Verse:
  <------------------------------rest------------------------------->
G|---------------------------------|---------------------------------|
D|*--------------------------------|--------------------------------*|
A|*--------------------------------|--------------------------------*|
E|---------------------------------|---------------------------------|
  <------------------------------rest------------------------------->
G|---------------------------------|---------------------------------|
D|*--------------------------------|--------------------------------*|
A|*--------------------------------|--------------------------------*|
E|---------------------------------|---------------------------------|

G|---------------------------------|---------------------------------|
D|*--------------------------------|--------------------------------*|
A|*--------------5--5-#------5-----|---------------5--5-#------5----*|
E|-0---0---#-0-----------0-5---5-\\-|-0---0---#-0-----------0-5---5-\\-|

G|---------------------------------|---------------------------------|
D|*--------------------------------|--------------------------------*|
A|*--------------5--5-#------5-----|---------------5--5-5-----------*|
E|-0---0---#-0-----------0-5---5---|-5---5---#-5-----------3---3--3\\-|

Chorus:

G|-----------------|-----------------|-----------------|-----------------|
D|*----------------|-----------------|-----------------|-----------------|
A|*5-5-5-5-5-5--4--|-----------------|-----------------|-----------------|
E|-----------------|-5--5-----5-5-5--|-7-7-7-7-7-7-7-5-|-5--5-----5-5-5--|


G|-----------------|-----------------|
D|*----------------|-----------------|
A|*----------------|-----------------|
E|-2-2-2-2-2-2-2-5-|-5--5-----5-5-5--|

Break:

G|---------------------------------|---------------------------------|
D|*--------------------------------|--------------------------------*|
A|*--------------5---5-------------|---------------5---5------------*|
E|-0---0---#-3-----------3-5-3-5-\\-|-0---0---#-3-----------3-5-3-5-\\-|

Bridge:

G|------------------------------|------------------------------|------------------------------|
D|*-----------------------------|------------------------------|-----------------------------*|
A|*------------------0--2-2---2-|-------------------0--2-2---2-|-------------------0--2-2---2*|
E|-3-3-3-3-3-3-3-3-3------------|-3-3-3-3-3-3-3-3-3------------|-3-3-3-3-3-3-3-3-3------------|

G|-----------------|-----------------|-----------------|-----------------|-----------------|
D|*----------------|-----------------|-----------------|-----------------|-----------------|
A|*5-5-5-5-5-5-5-5-|-----------------|-5-5-5-5-5-5-5-5-|-----------------|-----------------|
E|-----------------|---5-5-5-5-5-5-5-|-----------------|---5-5-5-5-5-5-5-|-2-2-2-2-2-2-2-2-|

G|-----------------------------|
D|-----7-5--------------------*|
A|---------7--5-4-4p7-5-------*|
E|-\\(5)-----------------7-5--0-|

G|--------------------------|--------------------------|
D|*-------------------------|--------------------------|
A|*--------5--\\--12---------|---------5--\\--12---------|
E|-3~---------------0-0---0-|-3~---------------0-0---0-|

G|--------------------------|--------------------------|
D|*-------------------------|--------------------------|
A|*--------5--\\--12---------|---------5--\\--12---------|
E|-3~---------------0-0---0-|-3~---------------0-0---0-|

Guitar Solo:

G|---------------------------------|---------------------------------|
D|*--------------------------------|--------------------------------*|
A|*--------------5---5-------------|---------------5---5------------*|
E|-0---0---#-3-----------3-5-3-5-\\-|-0---0---#-3-----------3-5-3-5-\\-|

G|---------------------------------|---------------------------------|
D|*--------------------------------|--------------------------------*|
A|*--------------5---5-------------|---------------5---5------------*|
E|-0---0---#-3-----------3-5-3-5-\\-|-0---0---#-3-----------3-5-3-5-\\-|

G|---------------------------------|---------------------------------|
D|*--------------------------------|--------------------------------*|
A|*--------------5---5-------------|---------------5---5------------*|
E|-0---0---#-3-----------3-5-3-5-\\-|-0---0---#-3-----------3-5-3-5-\\-|

Pre-Chorus:

G|---------------------------------|---------------------------------|
D|*--------------------------------|--------------------------------*|
A|*--------------5---5-------------|---------------5---5------------*|
E|-0---0---#-3-----------3-5-3-5-\\-|-0---0---#-3-----------3-5-3-5-\\-|

Chorus:

G|-----------------|-----------------|-----------------|-----------------|
D|*----------------|-----------------|-----------------|-----------------|
A|*5-5-5-5-5-5--4--|-----------------|-----------------|-----------------|
E|-----------------|-5--5-----5-5-5--|-7-7-7-7-7-7-7-5-|-5--5-----5-5-5--|


G|-----------------|-----------------|
D|*----------------|-----------------|
A|*----------------|-----------------|
E|-2-2-2-2-2-2-2-5-|-5--5-----5-5-5--|

Ending:

G|-----------------|-----------------|
D|*----------------|-----------------|
A|*----------------|-----------------|
E|-0~--------------|-----------------|

Brilliant song to play, feedback's always welcomed at my email.
  development and support by
dmitry ivanov