rock
 
|tablatures   |lyrics   |discussion forums   |more tabs @ XGuitar.com

U2 tabs

All Along The Watchtower bass tab

U2 "All along the watchtower" - Bass tab
 ------------------------------------------

 This is the bass tab of the Bob Dylan's song covered by U2 in the Rattle and Hum album.

 Opening: (this bit is not really a part of the song) 

 G|-----------------------------
 D|-----------------------------
 A|--------5--5--5---3----------
 E|-0-0------------------5------

  The song really starts when Larry and the Edge come in and Adam comes in a bit later 

 G|-----------------------------------
 D|-----------------------------------
 A|--15/-5-5----3-3-0-1--1-0-3-3-3-3--
 E|----------3------------------------
 
 Main riff for the whole song:

 G|--------------------------------------------------------------
 D|-------------------------------------------------------------- repeat over and over
 A|--5-5---3-3-3-3-1--1-0-3-3-3-3-5-5---3-3-3-3-1--1-0-3-3-3-3---
 E|------3-----------------------------3-------------------------

 Ending:
 G|----------------------------------------------
 D|----------------------------------------------
 A|--5-5---3-3-3-3-1--1-0-3-3-3-3-5-------5\0----
 E|------3---------------------------------------

 Tabbed by Roberto Cruz
 comments, corrections, suggestions send to
 zurc@sprint.ca




All along the watch tower bass tab
-----------------------------------

------------------------
------------------------
--4-4-0-2-2-2-0-0-2-2-0-
------------------------

mary.bonnor@virgin.net
  development and support by
dmitry ivanov