rock
 
|tablatures   |lyrics   |discussion forums   |more tabs @ XGuitar.com

U2 tabs

A Man And A Woman bass tab

Song: A Man And A Woman
Artist: U2
Album: How To Dismantle An Atomic Bomb
Tabbed by: Jase Warner (trip_through_your_wires@hotmail.com)

You have to be fairly flexible on the fret board for this song.

Standard Tuning (E,A,D,G)

Intro:

G|---------------------------|---------------------------|
D|*---------12---------------|----------12---------------|
A|*---12p14------14----12p14-|----12p14------14----12p14-|
E|-14---------------14-------|-14---------------14-------|

G|---------------------------|---------------------------|
D|----------12---------------|----------12--------------*|
A|-10p12p14------14----12p14-|----12p14------14----12p14*|
E|------------------14-------|-14---------------14-------|

First Verse:

G|---------------------------|---------------------------|
D|*---------12---------------|----------12---------------|
A|*---12p14------14----12p14-|----12p14------14----12p14-|
E|-14---------------14-------|-14---------------14-------|

G|---------------------------|---------------------------|
D|----------12---------------|----------12--------------*|
A|-10p12p14------14----12p14-|----12p14------14----12p14*|
E|------------------14-------|-14---------------14-------|

G|---------------------------|---------------------------|
D|*---------12---------------|----------12---------------|
A|*---12p14------14----12p14-|----12p14------14----12p14-|
E|-14---------------14-------|-14---------------14-------|

G|---------------------------|---------------------------|
D|----------12---------------|----------12--------------*|
A|-10p12p14------14----12p14-|----12p14------14----12p14*|
E|------------------14-------|-14---------------14-------|

Pre-Chorus:

G|--------------------|----7~--------------|--------------------|--------------------|
D|*---7p9----7p9~---7-|-5-------5p7---5--7-|-9~------9-----9--9-|-7~------7-7---7--7*|
A|*7-------7----------|--------------------|-------9---------9--|-------7-----7-----*|
E|--------------------|--------------------|--------------------|--------------------|

Chorus:

G|-----------------|--------------|-----------------|-------------|
D|*----------------|--------------|-----------------|------------*|
A|*----------------|--------------|-----------------|------------*|
E|-3---3-3---3--3#-|-5--5--7--7-\-|-3---3-3---3--3#-|-5--5p7-7-5\-|

G|-----------------|--------------|-----------------|-------------|
D|*----------------|--------------|-----------------|------------*|
A|*----------------|--------------|-----------------|------------*|
E|-3---3-3---3--3#-|-5--5--7--7-\-|-3---3-3---0--2~-|-------------|

G|-----------------|--------------|-----------------|-------------|
D|*----------------|--------------|-----------------|------------*|
A|*----------------|--------------|-----------------|------------*|
E|-3---3-3---3--3#-|-5--5--7--7-\-|-3---3-3---3--3#-|-5--5p7-7-5\-|

G|-----------------|--------------|-----------------|-------------|
D|*----------------|--------------|-----------------|------------*|
A|*----------------|--------------|-----------------|------------*|
E|-3---3-3---3--3#-|-5--5--7--7-\-|-3---3-3---0--2~-|-------------|

Second Verse:

G|---------------------------|---------------------------|
D|*---------12---------------|----------12---------------|
A|*---12p14------14----12p14-|----12p14------14----12p14-|
E|-14---------------14-------|-14---------------14-------|

G|---------------------------|---------------------------|
D|----------12---------------|----------12--------------*|
A|-10p12p14------14----12p14-|----12p14------14----12p14*|
E|------------------14-------|-14---------------14-------|

G|---------------------------|---------------------------|
D|*---------12---------------|----------12---------------|
A|*---12p14------14----12p14-|----12p14------14----12p14-|
E|-14---------------14-------|-14---------------14-------|

G|---------------------------|---------------------------|
D|----------12---------------|----------12--------------*|
A|-10p12p14------14----12p14-|----12p14------14----12p14*|
E|------------------14-------|-14---------------14-------|

Chorus:

G|-----------------|--------------|-----------------|-------------|
D|*----------------|--------------|-----------------|------------*|
A|*----------------|--------------|-----------------|------------*|
E|-3---3-3---3--3#-|-5--5--7--7-\-|-3---3-3---3--3#-|-5--5p7-7-5\-|

G|-----------------|--------------|-----------------|-------------|
D|*----------------|--------------|-----------------|------------*|
A|*----------------|--------------|-----------------|------------*|
E|-3---3-3---3--3#-|-5--5--7--7-\-|-3---3-3---0--2~-|-------------|

G|-----------------|--------------|-----------------|-------------|
D|*----------------|--------------|-----------------|------------*|
A|*----------------|--------------|-----------------|------------*|
E|-3---3-3---3--3#-|-5--5--7--7-\-|-3---3-3---3--3#-|-5--5p7-7-5\-|

G|-----------------|--------------|-----------------|-------------|
D|*----------------|--------------|-----------------|------------*|
A|*----------------|--------------|-----------------|------------*|
E|-3---3-3---3--3#-|-5--5--7--7-\-|-3---3-3---0--2~-|-------------|

Bridge:

G|--------------------|--------------------|--------------------|--------------------|
D|*-------------------|-7p9~---------------|-7~-----------------|-7p9---------------*|
A|*7~-----------------|--------------------|--------------------|-----10-10p12-10--9*|
E|--------------------|--------------------|--------------------|--------------------|

G|--------------------|--------------------|--------------------|--------------------|
D|*-------------------|-7p9~---------------|-7~-----------------|-7p9----------------|
A|*7~-----------------|--------------------|--------------------|-----10-10p12-10--9-|
E|--------------------|--------------------|--------------------|--------------------|

G|--------------------|--------------------|
D|--------------------|-------------------*|
A|-9p10~--------------|-9~----------------*|
E|--------------------|--------------------|

Third Verse:

G|---------------------------|---------------------------|
D|*---------12---------------|----------12---------------|
A|*---12p14------14----12p14-|----12p14------14----12p14-|
E|-14---------------14-------|-14---------------14-------|

G|---------------------------|---------------------------|
D|----------12---------------|----------12--------------*|
A|-10p12p14------14----12p14-|----12p14------14----12p14*|
E|------------------14-------|-14---------------14-------|

G|---------------------------|---------------------------|
D|*---------12---------------|----------12---------------|
A|*---12p14------14----12p14-|----12p14------14----12p14-|
E|-14---------------14-------|-14---------------14-------|

G|---------------------------|---------------------------|
D|----------12---------------|----------12--------------*|
A|-10p12p14------14----12p14-|----12p14------14----12p14*|
E|------------------14-------|-14---------------14-------|

Pre-Chorus:

Pre-Chorus:

G|--------------------|----7~--------------|--------------------|--------------------|
D|*---7p9----7p9~---7-|-5-------5p7---5--7-|-9~------9-----9--9-|-7~------7--5--4---*|
A|*7-------7----------|--------------------|-------9---------9--|-------7----------5*|
E|--------------------|--------------------|--------------------|--------------------|

Chorus:

G|-----------------|--------------|-----------------|-------------|
D|*----------------|--------------|-----------------|------------*|
A|*----------------|--------------|-----------------|------------*|
E|-3---3-3---3--3#-|-5--5--7--7-\-|-3---3-3---3--3#-|-5--5p7-7-5\-|

G|-----------------|--------------|-----------------|-------------|
D|*----------------|--------------|-----------------|------------*|
A|*----------------|--------------|-----------------|------------*|
E|-3---3-3---3--3#-|-5--5--7--7-\-|-3---3-3---0--2~-|-------------|

G|-----------------|--------------|-----------------|-------------|
D|*----------------|--------------|-----------------|------------*|
A|*----------------|--------------|-----------------|------------*|
E|-3---3-3---3--3#-|-5--5--7--7-\-|-3---3-3---3--3#-|-5--5p7-7-5\-|

G|-----------------|--------------|-----------------|-------------|
D|*----------------|--------------|-----------------|------------*|
A|*----------------|--------------|-----------------|------------*|
E|-3---3-3---3--3#-|-5--5--7--7-\-|-3---3-3---0--2~-|-------------|

That's another good song from the album, I'm nopt entirely sure about the pre-chorus
parts but if you have any suggestions then feel free to email them to me.
  development and support by
dmitry ivanov