rock
 
|tablatures   |lyrics   |discussion forums   |more tabs @ XGuitar.com

The_who tabs

Young Man Blues guitar tab

Young Man Blues
As performed by The Who
>From Live at Leeds, 1970
Written by Mose Allison 1957 Jazz Editions

==============
transcribed by
litgo@aol.com
==============

Note: everything included is approximate, including leads and timing...use at your own risk.

Em11    022233


|-------|------------------|--------------|-----------------|-------|-3-
|---3-2-|-0----------------|----------3-2-|-0---------------|-------|-3-
|---4-2-|-0----------------|--------2-4-2-|-0-------0-------|-------|-2-
|-2-----|---2p0---0--2p0---|-0-0h2--2-----|---2p0---0-2p0---|-------|-2-
|-------|-------2--------2-|--------------|-------2-------2-|----2--|-2-
|-------|------------------|--------------|-----------------|-3^-0--|-0-

Uh, well, a young man ain't got nothing in the world these days

|-------|------------------|-----------|---------------|-------|-3/3-
|---3-2-|-0----------------|-----------|-0-2-----------|-------|-3/3-
|---4-2-|-0-------0--------|-0-2-------|-0-2-----0-2---|-------|-2/2-
|-2-----|---2p0---0--2p0---|-0-2---2p0-|-0-2-0---0-2-0-|----2--|-2/2-
|-------|-------2--------2-|-----------|---------------|----2--|-----
|-------|------------------|-----------|---------------|-3^-0--|-----

I said, a young man ain't got nothing in the world these days

|------|---------------|----3---------|----------|----3---------
|------|-0-2-----0-2---|----3---------|-3--------|----3---------
|------|-0-2-----0-2---|----2---------|-2--0-2-0-|----2---------
|-2p0--|---2-0---0-2-0-|----2---------|-2--0-2-0-|----2-0h2p0h2p0h2..
|------|---------------|----2---------|-2--------|----2---------
|----3-|---------------|-3^-0---0-0---|----------|-3^-0---------

Well, you know, in the old days, when a young man was a strong man

|-12------|
|----15^--|

All the people, they stepped back when a young man walked by

|------|---------------|----3------------|---------|----3-----|
|------|-0-2-----0-2---|----3----------3-|---------|----3-----|
|------|-0-2-----0-2---|----2----------2-|---2-0-2-|----2-----|
|-2p0--|-0-2-----0-2-0-|-0--2----------2-|---2-0-2-|----2-----|
|------|---------------|-0--2----------2-|---------|----2-----|
|----3-|-----0---------|----0---0-0---0--|0--------|-3^-0---0-|

|--------------|---------|---------------------|----3--|---------
|---2----0-2---|---------|---------------------|----3--|-3/3-----
|-0-2----0-2---|-0-2-----|---------------------|----2--|-2/2-----
|-0-2----0-2-0-|-0-2--2-0|-2p0--2p0--2p0--2p0--|----2--|-2/2-----
|--------------|---------|----2----2----2----2-|-------|---------
|-----0--------|----0----|---------------------|-3^-0--|---------

But you know, nowadays, it's the old man, he's got all the money

|---3--|
|---3--|
|---2--|
|---2--|
|------|
|------|

And a young man ain't got nothing in the world these days, I say...

   I  say         Ain't got nothing      Ain't got
-3/3-|---------|----------/|-3----|(3)--------/
-3/3-|---------|----------/|-3----|(3)--------/
-2/2-|---------|----------/|-2----|(2)--------/
-2/2-|---------|----------/|-2----|(2)--------/
-----|-2-------|-----------|------|------------
-----|-0-------|(0)--------|------|------------

  Sweet     fuck all
|-3-----|------|-2-----|------|
|-3-----|----3-|-3-----|------|
|-2-----|----2-|-2-----|------|
|-2-----|------|-0-----|------|
|-------|------|-0-----|------|
|-------|------|-------|------|

  [pm]                             4
||-----------------|--------------||
||-----------------|---------3-2--||
||.----------------|---------2-2-.||
||.----------------|---------0-2-.||
||-2-2-2-2-2-2-2-2-|-2-2-2-2-0-0--||
||-0-0-0-0-0-0-0-0-|-0-0-0-0------||

|----------------|----------------|----------------|---------|
|----------------|----------------|----------------|---------|
|------------7-9-|------------7-9-|----------------|---------|
|----5-7-5---7-9-|----5-7-5---7-9-|----5-7-5-------|---------|
|----5-7-5-------|----5-7-5-------|----5-7-5---7-7-|-5--7----|
|0-0-0-0-0-0-0-0-|0-0-0-0-0-0-0-0-|0-0-0-0-0-0-0-0-|---------|


|----------------|----------------|----------------|---------|
|----------------|----------------|----------------|---------|
|------------7-9-|------------7-9-|----------------|---------|
|----5-7-5---7-9-|----5-7-5---7-9-|----5-7-5-------|---------|
|----5-7-5-------|----5-7-5-------|----5-7-5---7-7-|---------|
|0-0-0-0-0-0-0-0-|0-0-0-0-0-0-0-0-|0-0-0-0-0-0-0-0-|-3^-0----|

|--------------------|-------------|----------------|------|
|--------------------|-------------|----------------|------|
|--------------------|-------------|-0--------------|------|
|-5p0--5p0--5p0--5p0-|-5^-2----0-2-|---2-0-2-0------|-5^-2-|
|----7----7----7----7|-------------|-----------2-0-2|----2-|
|--------------------|-------------|----------------|----0-|

|------------------|----------|---0---0-0-|-0---0-0-0---|
|------------------|-0------0-|-3-5-3-5-5-|-5-3-5-5-3-0-|
|-----5p0----5p0-0-|-0--------|-----------|-----------0-|
|-5p0----5p0-------|---2------|-----------|-------------|
|----7------7------|----------|-----------|-------------|
|------------------|----------|-----------|-------------|

|---3----3/|3----------|-3---------|(3)-----------|
|---3----3/|3-3-2------|-3---------|(3)-----------|
|---2----2/|2-2-2------|-2---------|(2)-----------|
|---2----2/|2-0-2------|-2---------|(2)-----------|
|----------|--0-0------|-2---------|--------------|
|-0--------|-------3^-0|-0---------|--------------|

  Everybody knows, ...
|------------------------|--------------------------|
|---12h15---12h15---12h15|---12h15-------12---------|
|-12------12------12-----|-12-------12h14---12------|
|------------------------|---------------------14---|
|------------------------|--------------------------|
|------------------------|--------------------------|

  Everybody knows
|---12---12---------|-12-----12-----------|
|-----15^---15^-----|----15^----15^\------|
|-------------------|---------------------|
|-------------------|---------------------|
|-------------------|---------------------|
|-------------------|---------------------|

  Everybody knows
|---------------------------|-----------------------|-----------|
|-----12h15---12h15---12h15-|---12h15-------12------|-12--------|
|---12------12------12------|-12-------12h14---12h14|---12------|
|---------------------------|-----------------------|------14---|
|---------------------------|-----------------------|-----------|
|---------------------------|-----------------------|-----------|

Everybody knows that a young man ain't got nothin'
|------------------------|----------------|
|-----9----7----5------2-|----2-----------|
|12----------------------|---2------------|
|---/9---7----6-----2----|--2-------------|
|------------------------|--------------2-|
|------------------------|0-------------0-|

|---3--3---|-3---------|---3--3---|-3------------|
|---3--3---|-3---3-2---|---3--3---|-3---3--------|
|---2--2---|-2---2-2---|---2--2---|-2---2--------|
|---2--2---|-2---0-2---|---2--2---|-2---0-0-2----|
|----------|-----0-0---|----------|-----0--------|
|-0--------|-----------|----------|--------------|

|---3--3---|-3---------|---3----3-----|-3--------|
|---3--3---|-3---3-2---|---3----3-----|-3--------|
|---2--2---|-2---2-2---|---2----2-----|-2--------|
|---2--2---|-2---0-2---|---2----2-----|-2--------|
|----------|-----0-0---|--------------|----------|
|-0--------|-----------|-0---0-0--0-0-|----------|

                             Oooh yeah...
|---------|------|---|-----------|-----|-------------|
|---3-----|------|---|-----------|-----|-------------|
|---2-----|------|---|-----------|-----|-------------|
|---2-----|----0h|2--|-0h2p0-2p0-|-2---|-0h2-0h2-0h2-|
|---------|------|---|-----------|-----|-------------|
|-0-------|------|---|-----------|-----|-------------|

                  Ohhh, the young man             Get it...
|------|-------------|-----------|-3-------|------|-------|------|
|------|-------------|-----------|-3-------|------|-------|------|
|------|-------------|-----------|-2-------|------|-------|------|
|----0h|2-0---0------|-----------|-2-------|------|-------|------|
|------|--------2-0--|-----------|---------|------|-------|------|
|-3----|----3-------3|-0---------|---------|------|-------|------|

|---0-0---0-0-|--0--------------------|
|-3-5-5-3-5-5-|3-5-5-3-0--------------|
|-------------|-----------2-0-2-0-----|
|-------------|-------------------2-0-|
|-------------|-----------------------|
|-------------|-----------------------|

|---0-0---0-0-|--0-----5-3-------------|
|-3-5-5-3-5-5-|3-5-3-0-----5-3-5-0-----|
|-------------|--------------------2-0-|
|-------------|------------------------|
|-------------|------------------------|
|-------------|------------------------|

|---0-0---0-0-|---0-0----0-0|---0-0---0-0|---0-0----------|--------|
|-3-5-5-3-5-5-|-3-5-5-3-5/5/|5-5/5/5-5/5/|5-5/5/5-3-0-----|--------|
|-------------|-------------|------------|------------2-0-|2-0-2-0-|
|-------------|-------------|------------|----------------|2-0-2-0-|
|-------------|-------------|------------|----------------|--------|
|-------------|-------------|------------|----------------|--------|

|--------------------|----------|
|--------------------|----------|
|--------------------|----------|
|-2/2/2-2/2/2-2-2/2/2|-2-2------|
|--------------------|----------|
|--------------------|-----3^-0-|

|--------------------|---------|
|--------------------|---------|
|--------------------|---------|
|-2/2/2-2/2/2-2-2/2/2|-2-2-----|
|--------------------|---------|
|--------------------|-----3-3-|

|--------------------|---------|-3--------|----|
|--------------------|---------|-3--------|----|
|--------------------|-4-4-----|-2--------|-0--|
|-2/2/2-2/2/2-2-2/2/2|-2-2-----|-2--------|-0--|
|--------------------|-2-2-----|-2--------|-0--|
|--------------------|-0----0--|----------|-0--|

[restored in remaster                                                 
||-----12------------------|---------------12|-15^-12/12---------------|
||-------12-15-12-15-12-15-|12-15^---15-12---|-----------12-15-12------|
||-14^---------------------|-----------------|--------------------14-12|
||-------------------------|-----------------|-------------------------|
||-------------------------|-----------------|-------------------------|
||-------------------------|-----------------|-------------------------|

                                                       [end restored]
|-----------|--------------|--------------|---------|-12----12-----||
|-----------|--------------|--------------|---------|---15^---15^\-||
|----12^----|-14(^)\-14(^)\|-14(^)\-12----|---------|--------------||
|-14-----14-|--------------|-----------12h|14-12h14-|--------------||
|-----------|--------------|--------------|---------|--------------||
|-----------|--------------|--------------|---------|--------------||

[edited from remaster                                                  
||-12---12---12---|-12---12-----|------------|---------------|--------|
||---15^--15^--15^|---15^--15^^^|15^---------|---------------|--------|
||----------------|-------------|---14-12----|-14-12--14-12--|14-12---|
||----------------|-------------|---------12-|------14-----14|-----14-|
||----------------|-------------|------------|---------------|--------|
||----------------|-------------|------------|---------------|--------|

                                                             end edit]
|----------------|--------|--------------|----------------|-----|---||
|---12-15-12-15^-|--12-15-|12-15-12-15-*-|-12-10-8--------|-----|---||
|-14-------------|--------|--------------|---------9-7-5-3|-----|---||
|----------------|--------|--------------|----------------|-----|---||
|----------------|--------|--------------|----------------|2/---|---||
|----------------|--------|--------------|----------------|---0-|---||

                           Everybody knows...
|-3-|-4-|-5-|-6-|-7-|-8--|-9--|-10--|
|-4-|-5-|-6-|-7-|-8-|-9--|-10-|-11--|
|-3-|-4-|-5-|-6-|-7-|-8--|-9--|-10--|
|-0-|-0-|-0-|-0-|-0-|-0--|-0--|-0---|
|---|---|---|---|---|----|----|-----|
|---|---|---|---|---|----|----|-----|

 [pm]                                       [switch to neck pickup]
Everybody knows,                               In the 
|-------------------|-------------------|------------|
|-------------------|-------------------|-3----------|
|-------------------|-------------------|-2----------|
|-------------------|-------------------|-2----------|
|-------------------|-------------------|------------|
|-0-0-0-0-0-0-0-0-0-|-0-0-0-0-0-0-0-0-0-|------------|

  old days                              Everybody
|---------|--------------|---------|--------------|
|-15---14h|15--14--12----|-15---14h|15--17-14h15--|
|---14-14/|14--14--12h13-|---14-14/|14-----14/14--|
|-16---14h|16--14--12----|-16---14h|16--17-14h16--|
|---------|--------------|---------|--------------|
|---------|--------------|---------|--------------|

 stepped back when a young man walked...  walked 
|---------|--------------|---------|--------------|
|-15---14h|15--14--12----|-15---14h|15--17-14h15--|
|---14-14/|14--14--12h13-|---14-14/|14-----14/14--|
|-16---14h|16--14--12----|-16---14h|16--17-14h16--|
|---------|--------------|---------|--------------|
|---------|--------------|---------|--------------|

  by                       They stepped back
|------|----------------|-------------|----------------------|----|
|------|----------------|-------------|-----9-9---9-10--9-10-|----|
|-14---|---12-14-12-14--|-----14------|-----9-9---9-9---9-9--|----|
|-14---|---12-14-12-14--|-----14p12---|---9-9-9---9-11--9-11-|----|
|------|----------------|-------------|----------------------|----|
|------|----------------|-------------|----------------------|----|

 They stepped back    They stepped back
|-------------3--------|------|----|-3---|--|--|--|
|-------------3--------|-3----|----|-3---|--|--|--|
|-------------2---2----|-2-2-0|----|-2---|--|--|--|
|-----------------2-0--|-2-2-0|----|-2---|--|--|--|
|----------------------|------|----|-----|--|--|--|
|----------------------|------|----|-----|--|--|--|

|-------------|----------------|-------------|----------------|
|-------------|----------------|-------------|----------------|
|-------------|----------------|-------------|----------------|
|-2-2--2-2--2-|2--2-2--0---0---|-2-2--2-2--2-|2--2-2--0-------|
|-------------|----------2---2-|-------------|----------2---2-|
|-------------|----------0---0-|-------------|----------0-3-0-|

                              [switch to bridge pickup]
|-------------|----------------|-------------|--------------|
|-------------|----------------|-------------|--------------|
|-------------|----------------|-------------|--------------|
|-2-2--2-2--2-|2--2-2--0------0|-2-2--2-2--2-|2--2-2--2-0-0-|
|-------------|----------2-0---|-------------|----------0-0-|
|-------------|----------0---3-|-------------|--------------|

|-------------|-------------|-----------------|----------|
|-0-2-----0-2-|-------------|-----------------|----------|
|-0-2-----0-2-|-0-----------|---------0-------|-0--------|
|-0-2-0---0-2-|-0------2p0--|-0--2p0--0--2p0--|-0--------|
|-------------|-0---------2-|-------2-------2-|----------|
|-------------|----0--------|-----------------|----0---0-|

|-3-----3-----|--------|---------------|------3---|-----------------|
|-3-----3-----|--------|---------------|------3---|-----------------|
|-2-----2-----|--------|---------------|------2---|-----------------|
|-2-----2-----|--------|-0--2----0---0-|------2---|-0h2p0h2p0h2..---|
|-------------|--------|------2----2---|------2---|-----------------|
|-------------|----0---|---------------|-3^-0-0---|-----------------|

Nowdays if you're the young man
You ain't got nothing in the world these days, I say...

    You ain't got nothing         You got sweet fuck all
|-3--------------------------------------|----------------3----
|-3--------------------------------------|----------------3----
|-2--------------------------------------|----------------2----
|-2--------------------------------------|----------------2----
|----------------------------------------|----------------2----
|----------------------------------------|----------------0----

=============
litgo@aol.com
  development and support by
dmitry ivanov