rock
 
|tablatures   |lyrics   |discussion forums   |more tabs @ XGuitar.com

The_who tabs

Who Are You bass tab

THE WHO - "Who Are You?" - Bass Tab 

Common Time(4/4) 
Standard Tuning(EADG) 

INTRO: 
|---------|-----------|---------|----.----.-----------| 
|---------|-----------|---------|-r-14-r-12----.----.-| 
|-r-e-s-t-|-r-r-19/12/|-7-r-r-r-|-----------r-14-r-13-| 
|---------|-----------|---------|---------------------| 
  1 2 3 4   1 2 3  4    1 2 3 4   1 &  2 &  3 &  4 & 
                                                           . 
|---------------------|---------------------|----.----.---12-r-9/| 
|----.----.----.------|---------.----.----.-|-r-12-r-14-r--------| 
|-r-12-r-10-r-12-r--.-|--.-----10-r-12-r-14-|--------------------| 
|------------------10-|-r-12-r--------------|--------------------| 
  1 &  2 &  3 &  4 &    1 &  2  & 3  & 4 &    1 &  2 &  3 &  4 & 

                                                     (x16) 
|-7-------|-------------|---------|---------|-------------| 
|---------|---------5-7-|---------|---------|*---.-----.-*| 
|---------|-r-r-5-7-----|-7-------|-r-r-r-7/|*---7-r---7-*| 
|---------|-------------|---0-r-r-|---------|--0-----0----| 
  1 2 3 4   1 2 3 & 4 &   1 2 3 4   1 2 3 4    1 2 3 & 4 

VERSES: 
|------------|-----------|-----------|-------------------| 
|*-----------|-----------|-----------|------------------*| 
|*-----7---r-|-----5---r-|-----------|-3-2--------------*|(x4) 
|--r-0-------|-r-0-------|-r-0-5---r-|-----5-3---3-3/12--| 
   1 2 & 3 4   1 2 & 3 4   1 2 & 3 4   1 & 2 & 3 & 4 & 

1ST CHORUS: 
|-------------| 
|*---.-----.-*| 
|*---7-r---7-*|(x8) 
|--0-----0----| 
   1 2 3 & 4 

2ND CHORUS: 
          (x7)                              (x8) 
|-------------|---.---.-----------|-------------| 
|*---.-----.-*|-r-5-r-7-r-.-------|*---.-----.-*| 
|*---7-r---7-*|-----------5-r-r-7-|*---7-r---7-*| 
|--0-----0----|-------------------|--0-----0----| 
   1 2 3 & 4    1 & 2 & 3 & 4 & a    1 2 3 & 4 

MIDDLE: 
                           (x16)                    (x4) 
|---------|---------|-----------|------------|----------| 
|---------|---------|*---------*|*-----------|---------*| 
|---------|---------|*-r-e-s-t-*|*---------7-|-5-------*| 
|-0-------|---------|-----------|--0---------|----------| 
  1 2 3 4   1 2 3 4    1 2 3 4     1 2 3 4 &   1 2 3 4 

                 (x23)                    (x4)   
|---------|-----------|----------|------------| 
|---------|*---------*|*---------|-----------*| 
|---------|*-r-e-s-t-*|*-----7---|-----7-5---*| 
|-0-r-r-r-|-----------|--0-------|------------| 
  1 2 3 4    1 2 3 4     1 2 3 4   1 2 3 & 4 

END: 
         (x20) 
|-------------|-----------------|-----------------|-----------------| 
|*---.-----.-*|-----------------|-----------------|-----------------| 
|*---7-r---7-*|-----------------|-----------------|-----------------| 
|--0-----0----|-0-0-0-0-0-0-0-0-|-0-0-0-0-0-0-0-0-|-3-3-3-3-3-3-3-3-| 
   1 2 3 & 4    1 & 2 & 3 & 4 &   1 & 2 & 3 & 4 &   1 & 2 & 3 & 4 & 

|-----------------|-----------------|-----------------| 
|-----------------|-----------------|-----------------| 
|-----------------|-----------------|-----------------| 
|-3-3-3-3-3-3-3-3-|-5-5-5-5-5-5-5-5-|-5-5-5-5-5-5-5-5-| 
  1 & 2 & 3 & 4 &   1 & 2 & 3 & 4 &   1 & 2 & 3 & 4 & 

|-----------------|-----------------|---------| 
|-----------------|-----------------|---------| 
|-----------------|-----------------|---------| 
|-5-5-5-5-5-5-5-5-|-5-5-5-5-5-5-5-5-|-0-------| 
  1 & 2 & 3 & 4 &   1 & 2 & 3 & 4 &   1 2 3 4 

By: Johari Taylor 
E-mail: viking@powerup.com.au
  development and support by
dmitry ivanov