rock
 
|tablatures   |lyrics   |discussion forums   |more tabs @ XGuitar.com

The_who tabs

Till The Rivers All Run Dry guitar tab

Till The Rivers All Run Dry
By Pete Townshend and Ronnie Lane
>From Rough Mix, 1977
Written by Holyfield/Williams, İVogue Music, Inc.

Solo transcribed by 
Steve Wade (ox_8@hotmail.com)
The rest...
==============
transcribed by
litgo@aol.com
==============

capo on 2, gtrs 1 & 2; gtr 3 (leads) standard tuning
Guitar 1

          1        2
E       xx245x   xx2454
E/B     xx245x   x22454
Esus4   xx245x   xx2455
A       5x2255   5x2255
B7      x24245   x24245

[intro]
[gtr 2]
|E    E/B  |E   E/B  |E    E/B  | E   E/B  |
|--4---4---|----<14>-|--4---4---|-4----4---|etc.
|--5---5---|----<14>-|--5---5---|-5----5---|
|--4---4---|----<14>-|--4---4---|-4----4---|
|2---------|2--------|2---------|2---------|
|-----2----|---------|-----2----|-----2----|
|----------|---------|----------|----------|
|[gtr 1]                                   |
|----------|---------|----------|----------|
|----------|---------|--5----5--|--5----5--|
|----------|---------|-4-4--4-4-|-4-4--4-4-|
|----------|---------|2----2----|2----2----|
|----------|---------|----------|----------|
|----------|---------|----------|----------|

[chorus]
         E   E/B  Esus4   E   E/B   E  E/B 
Till the rivers all run dry
Till the sun falls from the sky
Till life on earth is through
        A       E   E/B   E  E/B 
I'll be needing you

[verse]
 E   E/B   Esus4         E   E/B
I know sometimes you may wonder
From little things I say and do
                               A
But there's no need for you to wonder
     E  E/B   E  E/B        B7
If I need you,  'cause I'll need you

[chorus]
Till the rivers all run dry
Till the sun falls from the sky
Till life on earth is through
I'll be needing you

Guitar lead solo 
E :------------------------------------------------------------------- 
B :------------------------------------------------------------------- 
G :------------------------------------------------------------------- 
D :---2-------2----2/6---6---6/7-----6--6-----6----------2-------2---4 
A :2------2-------------------------------------------2-------2------- 
E :------------------------------------------------------------------- 

E :----------------------------------------------------------------- 
B :----------------------------------------------------------------- 
G :----------------------------------------------------------------- 
D :--6--6--6/7-----9/11---9--------------2-------4h5p4--4----------2 
A :----------------------------------2-------2-----------------2---- 
E :----------------------------------------------------------------- 

E :------------------------------------------------------------------ 
B :------------------------------------------------------------------ 
G :------------------------------------------------------------------ 
D :------------------------------------2/6---4--4-------4/7---4-6-4-- 
A :---2----4--2----------2---2/4---2--------------------------------- 
E :---------------0-------------------------------------------------- 

E :------------------------------| 
B :------------------------------| 
G :------------------------------| 
D :------------------------------| 
A :7-4-2-------------------------| 
E :-------4-2-4--0--------0-2-4-0| 

Too many times I don't tell you
Too many things get in the way
And even though sometimes I hurt you
Still you show me in every way

[chorus]
Till the rivers all run dry
Till the sun falls from the sky
Till life on earth is through
I'll be needing you

=============
litgo@aol.com
  development and support by
dmitry ivanov