rock
 
|tablatures   |lyrics   |discussion forums   |more tabs @ XGuitar.com

The_who tabs

There's A Doctor guitar tab

There's A Doctor I've Found
By The Who
>From Tommy, 1969
Written by Pete Townshend

Mike (sef@icbr.ufl.edu) -- original compilation on Nevada
=============
revised by
litgo@aol.com
=============

[Note: transcribed for stage-version guitar; record is piano only]

[INTRO; piano arr. for guitar]
  Bb      F/A     Gm7     F
|---------------|-------------|
|-(6)(6)-(6)(6)-|-(3)(3)-(1)--|
|--7--7---5--5--|--3--3---2---|
|--8--8---7--7--|--5--5---3---|
|---------------|-------------|
|---------------|-------------|
|[gtr; stage vers:(Eb/F) (Bb)]|
|---------------|-------------|
|--3--3---1--1--|--4--4---3---|
|-(3)(3)-(2)(2)-|-(3)(3)-(3)--|
|--3--3---3--3--|--5--5---3---|
|-(1)(1)-(0)(0)-|-------------|
|---------------|-------------|

          Bb       F           Eb/F         Bb/D 
There's a man I've found could bring us all joy. (There's a)
        |--------------------|-----------------------|
        |-3---3----1-----1---|-4-----4------3-----3--|
        |-3---3----2-----2---|-3-----3------3-----3--|
        |-3---3----3-----3---|-5-----5------3-----3--|
        |--------------------|-------------(5)-------|
        |--------------------|-----------------------|

          Bb          F/A         Gm7      F
There's a doctor I've found could cure the boy
        |-----------------------|---------------|
        |-6-------6---6-----6---|-3----3---1-1--|
        |-7-------7---5-----5---|-3----3---2-2--|
        |-8-------8---7-----7---|-5----5---3-3--|
        |-----------------------|---------------|
        |-----------------------|---------------|

   Bb          F/A       Gm7      F
(A doctor I've found can cure the boy).

  Bb     F/A    | Gm7    F    |
|-----6------5--|-----3--1----|
|-----6------6--|-----3--1----|
|-----7------5--|-----3--2----|
|-8-8-8--7-7-7--|-5-5-5--3----|
|---------------|-------------|
|---------------|-------------|

         Bb        F           Eb/F       Bb/D 
There's a man I've found could remove his sorrow.
   Bb            F/A         Gm7       F
He lives in this town, let's see him tomorrow.
   Bb          F/A         Gm7       F
                    (Let's see him tomorrow.)

=============
litgo@aol.com
  development and support by
dmitry ivanov