rock
 
|tablatures   |lyrics   |discussion forums   |more tabs @ XGuitar.com

The_who tabs

The Seeker bass tab

The Seeker 
The Who 
Tabbed by Nick Key (nkey@ionet.net) 

Intro (the first two notes come right before the drum fill). 
|------| 
|------| 
|-3----|  
|---3--| 


Fig. 1 6x (Play lots of variations). 
|-----------------------| 
|------------------5-4--| 
|--5p4-0-0-------5------| 
|----------0-3h5--------| 

2x 
|---------------------| 
|-5h4-0-0---------5---| 
|---------0-4h5-5---5-| 
|---------------------| 

Then Fig. 1 2x 

Then  

Fig. 3 
|----------| 
|-3--------| 
|---3-3----| 
|-------3--| 

chorus/ bridge 
|--------------------------------------------| 
|-----------5-4-----------5-4-7-77-77--------| 
|-5-55-55-5-----5-55-55-5-------------0-5-4--|  
|--------------------------------------------| 

|---------------------------------------------| 
|-----------5-4-----------5-4-2-22-22-22-2----| 
|-5-55-55-5-----5-55-55-5---------------------|  
|------------------------------------------0--| 

End 
|-----------| 
|-3---------| 
|---3-3-----| 
|-------3-5-| 

Verse two times 
Chorus/Bridge 1x 
Verse 1x 
Fig. 1 2x 
Chorus/Bridge 1x 
Verse 1x (but play fig. 1 only four times at beginning). 
Fig. 1 2x 
Fig. 3 
Fig. 1 1x 
Then play end
  development and support by
dmitry ivanov