rock
 
|tablatures   |lyrics   |discussion forums   |more tabs @ XGuitar.com

The_who tabs

The Rock guitar tab

The Rock
By The Who
>From Quadrophenia, 1973
Written by Pete Townshend 1973 Fabulous Music Ltd.

Originally transcribed by
Kenny Sahr
==============
transcribed by
litgo@aol.com
==============

Three electric guitars, two lead, one rhythm: 
        tune down 1/2 step: Eb Ab Db F# Bb Eb
Horn, piano and synths arranged for guitar: tune down 1/2 step
Acoustic: standard tuning, capo on 1

Eb         (0)7999x and 022100   (acoustic: x11343)
Cm          xx6654
Db          xx0232
F#          3x0033
Ab          x02255 and x022
Bb          x2444x
B           x3555x

['Is it me' piano chords arr for gtr]
Gaug        xx6554
Abmaj7      xx7654
Cm7         x46454
Abmaj9      575657 (5776xx)

[middle solo rhythm chords]
E           x(8 10)10 10 8
E7          x(8 10)8 10 8
Am          xx(8)666
Am6         xx(8)686
Eb          x(79)997
Eb7         x(79)797
Abm         xx(9)777
Abm6        xx(0)797

[Love Reign O'er Me implied chords]
Ebmsus4     xx1344
Ebmsus4/Db  x41344

Note: Chords listed in () are implied bass transition notes. All leads approximate.

[Fade up from 'Dr. Jimmy']

["Bell Boy" theme (Keyboard only):]
||:Eb     Cm |Db      F# |Ab      Bb |B       Db  Eb/:||x2
[piano arr for gtr]
||-----------||
||-12--12----||
||.--9---9--.||
||.---9---9-.||
||-----------||
||-----------||

    |Eb     Cm |Db      F# |Ab      Bb |B       Db  Eb/|  
----|----------|-----------|-----------|---------------|
----|----------|-----------|-----------|---------------|
-9-9|9---------|-----------|-----------|------------1-1|
-9-9|9---------|-----------|-----------|------------2-2|
-7-7|7---------|-----------|-----------|------------2-2|
----|0---------|-----------|-----------|------------0-0|
[horn synth arr for gtr]                               |
----|---12-----|-----------|-----------|---------------|
----|12--------|-----------|-------10--|---------------|
----|----------|-----------|-----9-----|-------11------|
----|----------|-----------|-----------|---------12----|
----|----------|-----------|-----------|---------------|
----|----------|-----------|-----------|---------------|


|Eb     Cm |Db      F# |Ab      Bb |B       Db  Eb/|  
|0---------|-----------|-----------|---------------|
|0---------|-----------|-----------|---------------|
|1---------|-----------|-----------|------------9-9|
|2---------|-----------|-----------|------------9-9|
|2---------|-----------|-----------|------------7-7|
|0---------|-----------|-----------|----xxxxxx-----|
[horn synth arr for gtr]                           |
|---12-----|-----------|-----------|---------------|
|12--------|-----------|-------10--|---------------|
|----------|-----------|-----9-----|-------11------|
|----------|-----------|-----------|---------12----|
|----------|-----------|-----------|---------------|
|----------|-----------|-----------|---------------|

[With a beat]                                  
|Eb  Cm Db|      F# Ab|      Bb B|       Db    |
|------4-2|-------3---|5---------|-------2-----|
|9-----5-3|-------3---|5---------|-------3-----|
|9-----6-2|-------0---|2------4--|5------2--9-9|
|9-----6-0|-------0---|2------4--|5------0--9-9|
|7--------|----------0|0------2-3|3---------7-7|
|0--------|-------3---|----------|----------0-0|
[horn synth arr for gtr]                       |
|---12----|-----------|----------|-------------|
|12-------|-----------|----10----|-------------|
|---------|-----------|--9-------|-----11------|
|---------|-----------|----------|-------12----|
|---------|-----------|----------|-------------|
|---------|-----------|----------|-------------|

|Eb  Cm Db|      F# Ab |      Bb B|       Db    |
|------4--|2------3-5-5|5---------|-------------|
|9-----5--|3------3-5-5|5---------|-------------|
|9-----6-2|2------0-2-2|2------4-5|5---------1-1|
|9-----6-0|-------0-2-2|2------4-5|5---------2-2|
|7--------|---------0-0|0------2-3|3---------2-2|
|0--------|-------3----|----------|-----xxxx----|
[horn synth arr for gtr]                        |
|---12----|------------|----------|-------------|
|12-------|------------|----10----|-------------|
|---------|------------|--9-------|-----11------|
|---------|------------|----------|-------12----|
|---------|------------|----------|-------------|
|---------|------------|----------|-------------|

|Eb  Cm Db|     F# Ab|      Bb B|        Db |Eb     |    Db|Eb    |   |
|0-----4-2|------3---|5---------|-----------|0------|------|0-----|---|
|0-----5-3|------3---|5---------|-----------|0------|------|0-----|---|
|1-----6-2|------0---|2------4-5|5-------7\-|1------|------|1-----|---|
|2-----6-0|------0--2|2------4-5|5-------7\-|2------|-----0|------|---|
|2--------|---------0|0------2-3|3-------5\-|2------|------|------|---|
|0--------|------3---|----------|-----------|0------|------|------|---|
[horn synth arr for gtr]                                              |
|---12----|----------|----------|-----------|-------|------|------|---|
|12-------|----------|----10----|-----------|-------|----10|12----|---|
|---------|----------|--9-------|---11------|9------|------|------|---|
|---------|----------|----------|-----12----|-------|------|------|---|
|---------|----------|----------|-----------|-------|------|------|---|
|---------|----------|----------|-----------|-------|------|------|---|

[Keyboard intro to "Is it me" theme]
|Ebsus4 / / / | / / / / |Ab / / / |Ab / / / |

["Is it me" theme]
|Abmaj7    |                  |Gaug     |G           |
|----17-16-|-17-16h17p16------|---16----|------------|
|----------|------------17-17h|19---17--|------------|
|----------|------------------|---------|------------|
|----------|------------------|---------|------------|
|----------|------------------|---------|------------|
|----------|------------------|---------|------------|

|Cm     |Cm(Bb)           |Abmaj7          |        |
|-------|17^(19)-17^(19)--|^17\-16--19^(21)|^19(21)\|
|----17-|-----------------|-------17-------|--------|
|-------|-----------------|----------------|--------|
|-------|-----------------|----------------|--------|
|-------|-----------------|----------------|--------|
|-------|-----------------|----------------|--------|

     |Eb      Cm7    |Abmaj9          |
     |--19----19-----|19--------------|
     |19^--19^---19^-|-19^-17---17-17-|
     |---------------|----------------|
     |---------------|----------------|
     |---------------|----------------|
     |---------------|----------------|
[rhythm gtr in]                       |
-----|---------------|----------------|
-----|--------5------|----------------|
9--9-|9-------4------|2----------9--9-|
9--9-|9-------6------|2----------9--9-|
7--7-|7-------4------|0----------7--7-|
-----|---------------|----------------|

|Eb                                  Cm7 |Abmaj9                        |
|16h19p16--16h19p16--16h19p16--16h19p16--|16h19p16--16h19p16--16h19p16--|
|--------17--------17--------17--------17|--------17--------17--------17|
|----------------------------------------|------------------------------|
|----------------------------------------|------------------------------|
|----------------------------------------|------------------------------|
|----------------------------------------|------------------------------|
|                                        |                              |
|----------------------------------------|------------------------------|
|--------------------------------------5-|------------------------------|
|9-------------------------------------4-|2-----------------------------|
|9-------------------------------------6-|2-----------------------------|
|7-------------------------------------4-|0-----------------------------|
|----------------------------------------|------------------------------|

|Abmaj7         |              |Gaug |G          |
|19\------------|--------------|-----|-----------|
|--------10-9-10|-9h10p9-------|-----|-------5-7-|
|------9--------|-------9-11-9-|-----|-----------|
|---------------|--------------|10---|-----------|
|---------------|--------------|-----|-----------|
|---------------|--------------|-----|-----------|

|Cm     |Cm(Bb) |Abmaj7    |                   |
|-----0-|-----0-|---0----0-|-0--0--0--0-----0--|
|7^-----|7^-----|7^-- 7^---|-7^-7^-7^-7^\-5p0--|
|-------|-------|----------|-------------------|
|-------|-------|----------|-------------------|
|-------|-------|----------|-------------------|
|-------|-------|----------|-------------------|

     |Eb      Cm7|Abmaj9     |Eb       Cm7|Abmaj9       |
     |-0------0--|--0------0-|-0------0---|--0------0---|
     |--0------0-|---0------0|--0------0--|---0------0--|
     |4^-(^)4\---|4^--(^)4\--|4^-(^)4\----|4^--(^)4\--4/|
     |-----------|-----------|------------|-------------|
     |-----------|-----------|------------|-------------|
     |-----------|-----------|------------|-------------|
[rhythm gtr in]                                         |
12-12|12------9--|9-----12-12|12--------9-|9------------|
12-12|12------12-|12----12-12|12--------12|12-----------|
9--9-|9-------9--|9-----9--9-|9---------9-|9------------|
9--9-|9-------9--|11----9--9-|9---------9-|11-----------|
-----|-----------|-----------|------------|-------------|
-----|-----------|-----------|------------|-------------|

|E   |    |E         |     |                 |
|----|----|----------|-----|-----------------|
|----|----|----------|-----|-----------------|
|5---|----|----------|-----|-----------------|
|----|----|----------|-----|-----------------|
|----|----|----------|-----|-----------------|
|----|----|----------|-----|-----------------|
|                                            |
|----|----|----------|-----|-----------------|
|----|----|-13-13-13-|-13--|--13-13-13-11-10-|
|----|----|-10-10-10-|-10--|--10-10-10-10-10-|
|----|----|-10-10-10-|-10--|--10-10-10-10-10-|
|----|----|----------|-----|-----------------|
|----|----|----------|-----|-----------------|

                           ["Helpless dancer" horn theme; rhythm gtr out]
|E         |               |E     |     |E(D) |    |
|----------|---------------|------|-----|-----|----|
|11--10-10-|---10h11p10----|10----|-----|-----|----|
|10--10-10-|---10------h12p|10----|-----|-----|----|
|10--10-10-|---10----------|10----|-----|-----|----|
|----------|---------------|------|-----|-----|----|
|----------|---------------|------|-----|-----|----|
                           [horn arr for gtr]
                           |5-5-6-|-8---|-----|----|
                           |-8----|-----|-----|----|
                           |------|-----|-----|----|
                           |------|-----|-----|----|
                           |------|-----|-----|----|
                           |------|-----|-----|----|

|E / / / | / / / / |E(D) / / / | / / / / |
|5---5-6-|-8-------|-----------|---------|
|--8-----|---------|-----------|---------|
|--------|---------|-----------|---------|
|--------|---------|-----------|---------|
|--------|---------|-----------|---------|
|--------|---------|-----------|---------|

|E / / / | / / / / |D / / / | / / / / |E / / / | / / / / | / / / / | / / / / |
|5---5-6-|-8-------|
|--8-----|---------|
|--------|---------|[horn out]
|--------|---------|
|--------|---------|
|--------|---------|


[Piano rhythm only; implied chords]                     x4              x2
||:E     /     E7     /    |Am    /         Am6   /    :||:E           :||
||----------6--8--6--8-----|9--8--9-8h9p8---------------||--------------||
||-10-8--10-------------6--|----------------11-10-11-8--||-10---8-10--8-||
||.------------------------|---------------------------.||.------------.||
||.------------------------|---------------------------.||.------------.||
||-------------------------|----------------------------||--------------||
||-------------------------|----------------------------||--------------||
||[piano arr for gtr]
||-------------------------|----------------------------||--------------||
||-------------------------|----------------------------||--------------||
||.------------------------|---------------------------.||.------------.||
||.9-----------9-----------|7---------------7----------.||.9-------9---.||
||-7-----------7-----------|7---------------7-----------||-7-------7----||
||-------------------------|----------------------------||--------------||

[drums in; rhythm gtr in, palm mute only, no chords]    x4[rhyth out]   x4
||:E        /  E7       /  |Am            / Am6      / :||:E           :||
||----------6--8--6--8-----|9--8--9-8h9p8---------------||--------------||
||-10-8--10-------------6--|----------------11-10-11-8--||-10---8-10--8-||
||.------------------------|---------------------------.||.------------.||
||.------------------------|---------------------------.||.------------.||
||-------------------------|----------------------------||--------------||
||-------------------------|----------------------------||--------------||

[rhythm gtr on chords, palm mute]                       x3[rhyh out]    x2
||:Eb         / Eb7       /|Abm           / Abm6       :||:Eb          :||
||----------5---7--5--7----|8--7--8-7h8p7---------------||--------------||
||-9--7--9---------------5-|----------------10-9-10-7---||-9---7--9---7-||
||.------------------------|---------------------------.||.------------.||
||.------------------------|---------------------------.||.------------.||
||-------------------------|----------------------------||--------------||
||-------------------------|----------------------------||--------------||
||[guitar 2]               |                            ||              ||
||-------------------------|----------------------------||--------------||
||----------7---9--7--9----|10-9--10-9h10p9-------------||--------------||
||.9--8--9---------------7-|----------------11-9--11-8-.||.9---8--9--8-.||
||.------------------------|---------------------------.||.------------.||
||-------------------------|----------------------------||--------------||
||-------------------------|----------------------------||--------------||

[drums out; rhyth in, palm mute]             x3           x2[rhyth out] x2
||:Eb   /  Eb7   / |Abm   /        Abm6   / :||:Eb       :||:Eb        :||
||-------5-7--5-7--|8--7-8-7h8p7-------------||-----------||------------||
||-9-7-9----------5|---------------10-9-10-7-||-9--7-9--7-||-9--7h9--7h-||
||.----------------|------------------------.||.---------.||.----------.||
||.----------------|------------------------.||.---------.||.----------.||
||-----------------|-------------------------||-----------||------------||
||-----------------|-------------------------||-----------||------------||
||[guitar 2]       |                         ||           ||            ||
||-----------------|-------------------------||-----------||------------||
||-------7-9--7-9--|10-9-10-9h10p9-----------||-----------||------------||
||.9-8-9----------7|---------------11-9-11-8.||.9--8-9--8.||.9--8h9--8h.||
||.----------------|------------------------.||.---------.||.----------.||
||-----------------|-------------------------||-----------||------------||
||-----------------|-------------------------||-----------||------------||

[drums in; rhyth gtr in, straight time, palm mute]         x4
||:Eb    /      Eb7   /    | Abm   /           Abm6  /    :||
||----------5---7--5--7----|-8--7--8-7h8p7-----------------||
||-9--7--9---------------5-|-------------------10-9--10-7--||
||.------------------------|------------------------------.||
||.------------------------|------------------------------.||
||-------------------------|-------------------------------||
||-------------------------|-------------------------------||
||[guitar 2]               |                               ||
||----------8--10-8--10----|-12-11-12-11h12p11-------------||
||-12-10-12--------------12|-------------------13-12-13-10-||
||.------------------------|------------------------------.||
||.------------------------|------------------------------.||
||-------------------------|-------------------------------||
||-------------------------|-------------------------------||

                                                           x4
||:Eb    /      Eb7   /    | Ab    /           Abm6  /    :||
||-----------5--7--5--7----|-9--8--9-8h9p8-----------------||
||--9--7--9---------------5|-------------------10-9--10-7--||
||.------------------------|------------------------------.||
||.------------------------|------------------------------.||
||-------------------------|-------------------------------||
||-------------------------|-------------------------------||
||[guitar 2]               |                               ||
||----------8--10-8--10----|-12-11-12-10h12p10-------------||
||-12-10-12--------------12|-------------------13-12-13-10-||
||.------------------------|------------------------------.||
||.------------------------|------------------------------.||
||-------------------------|-------------------------------||
||-------------------------|-------------------------------||

[rhythm gtr out]            x2
||:Eb                     :||Eb                      |Eb               |
||-----------5--7--5-7--5--||------------------------|-----------------|
||-9--7--9-----------------||-9--7--9---7--9------7--|9----------------|
||.-----------------------.||------------------------|-----------------|
||.-----------------------.||------------------------|-----------------|
||-------------------------||------------------------|-----------------|
||-------------------------||------------------------|-----------------|
||[guitar 2]               ||                        |                 |
||----------8--10-8--10-8--||------------------------|-----------------|
||-12-10-12----------------||-12-10-12-10--12-----10-|12---------------|
||.-----------------------.||------------------------|-----------------|
||.-----------------------.||------------------------|-----------------|
||-------------------------||------------------------|-----------------|
||-------------------------||------------------------|----xxxxxxxxxxxxx|
                                                          [pick slide]
["Love Reign O'er Me" theme (Half Tempo) (6/8)]
|Ebm7/ / | / / / | / / / | / / Ebm(Db)|Bmaj7 / / | /   /    Bmaj7(Bb)|
|--------|-------|-------|------------|----------|-------------------|
|--------|-------|-------|------------|----------|-------------------|
|--------|-------|14^----|14^----(^)14|14--12----|------14^--\-14^---|
|--------|-------|-------|------------|------14--|-------------------|
|--------|-------|-------|------------|----------|-------------------|
|0-------|0------|-------|------------|----------|-------------------|

|Abm7 / / | /      /        /    |Ebm7   |                |            |
|----12---|15^-----12---15--12---|12-----|17-15-17-15-17^-|15-12--\(0)-|
|---------|------15--15--------15|-------|----------------|------------|
|12-------|----------------------|-------|----------------|------------|
|--14-----|----------------------|-------|----------------|------------|
|---------|----------------------|-------|----------------|------------|
|---------|----------------------|-------|----------------|------------|

|             Ebm(Db)|Bmaj7 / /  |/   /    Bmaj7(Bb)|
|--------------------|-----------|------------------|
|-------10^(12)-8----|-----------|------------------|
|-7^~-7----------9---|-----------|------------0h2-0h|
|------------------7^|7^(9)--7-5-|------------------|
|--------------------|-----------|7-5---------------|
|--------------------|-----------|----3~------------|

                        [acoustic in; rapid strum flourish]
                        |Eb///| % |      %       | % |       %     | % |
|Abm7 /  /|             |Eb                                    
|---------|0---0-2-0-3-0|0----|---|--------------|---|-------------|---|
|------5-3|4^(5)-------0|0----|---|---<12>-------|---|9--<12>------|---|
|2^(4)----|-------------|1----|---|11^----(^)11\-|9--|11^----(^)11\|9--|
|---------|-------------|2----|---|--------------|---|-------------|---|
|---------|-------------|2----|---|--------------|---|-------------|---|
|---------|-------------|0----|---|--------------|---|-------------|---|

| %   |     %     |Eb 
|     |           |       
|-----|12-10-9----|0------
|-----|-----------|0------
|-----|-----------|-------
|-----|-----------|-------
|-----|-----------|-------
|-----|-----------|-------

[piano and strings only; acoustic fades out]
|Eb / / / | / / / / | / / / / | / / / / |

                    [drum fill]
|Eb / / / | / / / / | / / / / | / / / / ||

[Finale on "Bell Boy" theme (keyboard solo)]
[synth pattern arr for guitar; repeats to end]
||:Eb                     |                         |
||-16----16-17-19-17-19-17|16----16--17-19-17-19-17-|
||----19------------------|---19--------------------|
||.-----------------------|-------------------------|
||.-----------------------|-------------------------|
||------------------------|-------------------------|
||------------------------|-------------------------|
||[horn synth arr for guitar]                       |
||-------------12---------|-------------------------|
||-12---------------------|-------------------------|
||------------------------|-------------------------|
||------------------------|-------------------------|
||------------------------|-------------------------|
||------------------------|-------------------------|

|                        |                       :||
|16----16-17-19-17-19-17-|15----15-17-19-17-19-17-||
|---17-------------------|---17-------------------||
|------------------------|-----------------------.||
|------------------------|-----------------------.||
|------------------------|------------------------||
|------------------------|------------------------||
|                                                 ||
|------------------------|------------------------||
|------------10----------|------------------------||
|------------------------|-------------11---------||
|------------------------|-----------------12-----||
|11----------------------|------------------------||
|------------------------|------------------------||

|[repeat synth pattern]   |      %      |  %     |
|                                                |
|---------|---------------|-------------|--------|
|9-/12-12-|10-9-----------|------12--12-|10-9----|
|---------|-----9---------|-------------|----9---|
|---------|---------------|-------------|--------|
|---------|---------------|11-----------|--------|
|---------|---------------|-------------|--------|

[guitar in, with synth pattern]                                         
    |Eb  Cm Db|       F# Ab|      Bb  B|        Db   |
----|------4-2|------------|-----------|-------------|
----|9-----5-3|------------|-----------|-------------|
-9-9|9-----6-2|-------0-0-2|------4-4/5|--------7--7-|
-9-9|9-----6-0|-------0-0-2|------4-4/5|--------7--7-|
-7-7|7--------|-----------0|------2-2/3|--------5--5-|
----|0--------|-------3-3--|-----------|-------------|
    |[horn synth]                                    |
----|---------|------------|-----------|-------------|
----|-12-14-12|14--12------|--12--12---|10-9---------|
----|---------|------------|-----------|----9--------|
----|---------|------------|-----------|-------------|
----|---------|------------|-----------|-------------|
----|---------|------------|-----------|-------------|

|Eb  Cm Db|       F# Ab|      Bb  B|        Db|
|------4-2|------------|-----------|----------|
|9-----5-3|------------|-----------|----------|
|9-----6-2|-------0---2|------4-4/5|--------7\|
|9-----6-0|-------0---2|------4-4/5|--------7\|
|7--------|-----------0|------2-2/3|--------5\|
|0--------|-------3----|-----------|----------|
|                                             |
|----19-17|16----------|-----19-19-|17-16-----|
|--17-----|------------|<17--------|-----17---|
|---------|------------|-----------|----------|
|---------|------------|-----------|----------|
|---------|------------|-----------|----------|
|---------|------------|-----------|----------|

|Eb    Cm Db|       F# Ab|      Bb  B|        Db    |
|------4-4-2|------------|-----------|--------2-2-2-|
|0-----5-5-3|------------|-----------|--------3-3-3-|
|1-----6-6-2|-------0-0-2|------4-4-5|--------2-2-2-|
|2-----6-6-0|-------0-0-2|------4-4-5|--------0-0-0-|
|2----------|-----------0|------2-2-3|--------------|
|0----------|-------3-3--|-----------|--------------|
|                                                   |
|-----------|------------|-----------|--------------|
|---12-12---|10-9--------|----12-12--|10-9----------|
|-----------|----9-------|-----------|----9---------|
|-----------|------------|-----------|--------------|
|-----------|------------|11---------|--------------|
|-----------|------------|-----------|--------------|

|Eb         |             |Ebm     
|-----------|-------------|--------
|0----------|-------------|--------
|1----------|-------------|--------
|2----------|-------------|--------
|2----------|-------------|--------
|0----------|--xxxxxxxxxx-|--------
|                                 
|-----------|-------------|15------
|---12-12-10|12-----------|--------
|-----------|-------------|--------
|-----------|-------------|--------
|-----------|-------------|--------
|-----------|-------------|--------

[fade to rain & thunder sounds]
=============
litgo@aol.com
  development and support by
dmitry ivanov