rock
 
|tablatures   |lyrics   |discussion forums   |more tabs @ XGuitar.com

The_who tabs

Signal 30 (aka Who The F**k; Sodding About) guitar tab

Signal 30 (aka Who The F**k, aka Sodding About)
Written and performed by The Who, 1967
>Appears on Live at the BBC, 1999

==============
transcribed by
litgo@aol.com
==============

Tune down whole step: DGCFAD

[main riff]
||:(D)      |         |         |         |(Bb)     |        |
||----------|---------|---------|---------|---------|--------|
||----------|---------|---------|---------|---------|--------|
||.---------|---------|---------|---------|---------|--------|
||.2-2----0-|2-2----0-|2-2----0-|2-2----0-|---------|--------|
||------2---|-----2---|-----2---|-----2---|3-3----1-|3-3----1|
||----------|---------|---------|---------|-----3---|-----3--|

|(D)      |         |F      |C   :||
|---------|---------|3------|2----||
|---------|---------|3------|3----||
|---------|---------|0------|2---.||
|2-2----0-|2-2----0-|0------|0---.||
|-----2---|-----2---|-------|-----||
|---------|---------|3------|-----||

=============
litgo@aol.com
  development and support by
dmitry ivanov