rock
 
|tablatures   |lyrics   |discussion forums   |more tabs @ XGuitar.com

The_who tabs

Secondhand Love guitar tab

Secondhand Love
Written and performed by Pete Townshend
From White City - A Novel, 1985
1985 Eel Pie Publishing Ltd.

==============
transcribed by
litgo@aol.com
==============

Capo on 1

Note: leads are approximate

    [main pattern]
      F
---||---------|------||
---||---------|------||
---||.--------|-----.||
(3)||.--------|-----.||
---||---1-3-1-|------||
---||-1-------|4^-1--||

Don't bring me secondhand love
Don't bring me secondhand love

Now, you went out tonight
Who you been hanging around this time?
I don't care if he's black or white
I just don't like his kind

I don't want your secondhand love
I don't want your secondhand love
I don't want your secondhand love
Don't bring me secondhand love

He's been leaving his scent on you
I can sense it from a mile
Yet all my money is spent on you
But you're still selling your smile

Don't bring me secondhand love
Don't bring me secondhand love
I don't want your secondhand love
I don't want your secondhand love

         |Bbmaj7|                      |Abmaj7    |       |
Give your love and keep blood between brothers
Give your love and keep blood between brothers

I don't want your secondhand 
[solo]
 F
 love                     
|------------------------|--------------------1---|-------------------|
|------------------------|--------------------1-3^|1^-----------------|
|------------------------|----------------------3^|1^-----------------|
|3/3/3/3/3/3/3/3/3/3/3/3/|3/3/3/3/3/3/3/3/3/3-----|--3p1-1h3-3/3/3/3/3|
|------------------------|------------------------|-------------------|
|------------------------|------------------------|-------------------|
             (don't bring...)                        (don't give me...)
|--------------------|-----------------------|--------------|
|----------------1-1-|-----------------------|10~---10~-----|
|------1-----1-------|----------------10^-10^|10~10^10~-10^-|
|3/3/3/3/3/3/3/3-3-3-|3/3/3/3/3/3/3/3-10^-10^|---10^----10^-|
|--------------------|-----------------------|--------------|
|--------------------|-----------------------|--------------|

|------------------------|------------|
|------------------------|------------|
|------------------------|1-----------|
|3/3/3/3/3/3/3/3/3/3/3/3/|3-x3--------|
|------------------------|------------|
|------------------------|------------|

I can guess where you've been tonight, yeah
You've been hanging on the street
Wearing your dress too tight
Showin' out to anyone you meet

Well, I don't want your secondhand love
I don't want your secondhand love
Don't bring me your secondhand love
Don't bring me your secondhand love

I want the first call        on your kiss
----------|----------17-17-17-------|-----17-17-17--|
----------|----------16-16-16-------|-----16-16-16--|
----------|----------17-17-17-------|-----17-17-17--|
----------|-------------------------|---------------|
----------|-------------------------|---------------|
----------|-------------------------|---------------|

Answer me one question, can you promise me this?
I want my defenses laying in your hand
I don't want to rest in the palm of another man

I don't want your secondhand love
Don't want, don't want your secondhand love
I don't want, I don't want your secondhand love
I don't want, I don't want your secondhand love

[solo]

|---1/1/1/1/1/1/1/1/1---|4-4-4------4-4-4-|
|---6/6/6/4/4/4/1/1/----|4-4-4------4-4-4-|
|-------------------3---|-----------------|
|-----------------------|3-3-3------3-3-3-|
|-----------------------|-----------------|
|-----------------------|-----------------|

I don't want, I don't want your secondhand love
                                          |--------|---------|
                                          |--------|---------|
                                          |--------|---------|
                                          |3-1-----|---------|
                                          |----3-1-|---------|
                                          |--------|4^p1-----|

=============
litgo@aol.com
  development and support by
dmitry ivanov