rock
 
|tablatures   |lyrics   |discussion forums   |more tabs @ XGuitar.com

The_who tabs

Rough Mix guitar tab

Rough Mix
By Pete Townshend, Ronnie Lane, Eric Clapton, John 'Rabbit' Bundrick, Henry Spinetti
Written by Pete Townshend and Ronnie Lane
>From Rough Mix, 1977 WB Music Corp./Towser Tunes Inc.

==============
transcribed by
litgo@aol.com
==============

Note: leads are approximate

Gtr 1: capo on 3
Gtr 2: standard

C      x355xx
F      xx3565
Bb     6x3366
Ebadd9 x65363

[gtr 1; intro; main rhyth pattern]
||:C  C  |C      C7:||x4
||-------|----------||
||-------|----------||
||.5-x5-x|5--------.||
||.5-x5-x|5-----5h7.||
||-3--3--|3--5h6----||
||-------|----------||

[Gtr 2; approx main riff with gtr 1 main rhyth pattern above]
                         x4                         x4
||:C   C |C           C7:||:C   C  |C            C7:||
||-8-----|---------------||--------|----------------||
||--11-8-|---------------||-11-8---|8---8^----------||
||.------|10-8^---------.||.----10^|10^-8^---------.||
||.------|------10--8-10.||.-------|-------10--8-10.||
||-------|---------------||--------|----------------||
||-------|---------------||--------|----------------||

                         x4
||:C   C |C           C7:||
||-8-----|---------------||
||---8-8-|---------------||
||.----10|10-8^---------.||
||.------|------10--8-10.||
||-------|---------------||
||-------|---------------||

|F   F   |F     |F  F|Ebadd9 |F   F   |F     |F   F   |Ebadd9      |
|8---8---|8-----|---8|11-----|11^-11--|8-----|8---8---|8---8---8---|
|11^-11^-|11^---|11^-|-------|--------|------|11^-----|11^-11^-11^-|
|--------|------|----|-------|--------|------|--------|------------|
|--------|------|----|-------|--------|------|--------|------------|
|--------|------|----|-------|--------|------|--------|------------|
|--------|------|----|-------|--------|------|--------|------------|

                         x4
||:C   C |C           C7:||Bb F |Bb F |Bb F |Bb F |

[repeat]

[interlude]                        x6
||----------|--------|-------|-----||
||----------|--------|-------|-----||
||.---------|--------|-------|----.||
||.---------|--------|-------|----.||
||---------6|~-------|-------|-----||
||-3-6-8-8--|--3-6-8-|3-6-8-8|\---3||

|Bb F |Bb F |Bb F |Bb F |

[repeat main pattern]

[outro]
|Bb F |Bb F |Bb F |Bb F |Bb C

=============
litgo@aol.com
  development and support by
dmitry ivanov