rock
 
|tablatures   |lyrics   |discussion forums   |more tabs @ XGuitar.com

The_who tabs

Prelude guitar tab

Prelude
By Pete Townshend
>From All The Best Cowboys Have Chinese Eyes, 1982
Written by Pete Townshend 1982 Eel Pie Publishing Ltd./Towser Tunes Inc.

==============
transcribed by
litgo@aol.com
==============

Capo on 3

[approx piano changes arr for gtr]

C     x35553
F/C   x36453
G/C   x38673
Dm    x57765
Em    x79987
Gsus4 355533
G     355433


[intro]

|C   F/C   G/C   F/C |C   F/C  G/C  F/C|

C       F/C G/C F/C             |C          F/C   G/C F/C
  Sometimes, walking through the streets of this city
C   F/C         G/C  G/C    |C               F/C    G/C  F/C
  I see all the faces of the winners and the losers

[synth arr for gtr]
|C   F/C   G/C   F/C |C    F/C   G/C  F/C |
|--------------------|--------------------|
|--------------------|--------------------|
|--------------------|--------------------|
|5---3-5-------------|--------------------|
|----------7-----5-7-|3-------------------|
|--------------------|---3-3--------------|

|C   F/C   G/C   F/C |C    F/C   G/C  F/C |
|--------------------|--------------------|
|--------------------|--------------------|
|12--10-12-9-------9-|--------------------|
|---------------12---|10------------------|
|--------------------|--10-10-------------|
|--------------------|--------------------|

   |C  F/C G/C F/C    |C   F/C G/C F/C
Oh, why, can't I see a change -- just one sign

|C    Dm   |Em    Dm  

|C          Dm     |Gsus4    G      |C   F/C   G/C  F/C|
   Before I say goodbye? 

|C   F/C    G/C F/C |C                           
   Before I say  goodbye

=============
litgo@aol.com

  development and support by
dmitry ivanov