rock
 
|tablatures   |lyrics   |discussion forums   |more tabs @ XGuitar.com

The_who tabs

My Way guitar tab

My Way
As performed by The Who, 1967
>From Odds and Sods (reissue)
Written by Eddie Cochran/Jerry Capehart

==============
transcribed by
litgo@aol.com
==============

D7(x)      10 12 10 11 10 x (intro only)
C7(viii)   8 10 8 9 9 x (intro only)
G7(iii)    353463 (intro only)
G          35xxxx 
G7         37xxxx 
C7         x3231x 
D7         x5453x 

Note: patterns and leads approximate

[intro]
|D7(x)   |C7(viii)   |G7(iii)    |D7    |

      [main pattern]
     |G        G7     G   G7|G        G7    G    G7
Well, come on, pretty baby,  let's go out tonight   (Your)
     |----------------------|---------------------------|
     |----------------------|---------------------------|
     |----------------------|---------------------------|
     |--------------------3-|5------------------------3-|
     |5----5---7---7--5-5---|----------------------5----|
     |3----3---3---3--3-----|---------------------------|

    |G         G7      G      G7  |G        G7   G    G7
Your mom won't have to worry, everything'll be alright
     |G      G7       G      G7    |G        G7     G    G7
Don't let me hear you talking, just be there when I call
      |G                          |
'Cause what I do I do my way or it won't be done at all

[chorus]
      |C7              |                         |G          |   
Little girl,                  can you hear what I say?
      |----------------|-------------------------|-----------|---
      |---------------5|------------------------5|----------5|---
      |-----------0/3--|3~-----------------0/3---|3~----0/3--|3~-
      |5---7---5-------|----------5--5--5--------|-----------|---
      |3-3-3-3-3-3-----|----------3--3--3--------|-----------|---
      |----------------|-------------------------|-----------|---

      |D7   D7/F  D7  D7/C#|C7     C7/Eb C7  C7/F|G     |D7    |
I'm an easy going guy but I always gotta have my  way
      |--------------------|---------------------|
      |--------------------|---------------------|
      |--------------------|---------------------|
      |-----3--------------|-------1-------------|
      |5----------5---4----|3------------3-------|
      |--------------------|------------------1--|

Yeah, I was born a tiger, I've always had my way
Don't ever try to change me this or any other day
Don't let me hear you argue the things I say I do
Don't give me no trouble or you all and I are through

Little girl, can you hear what I say?
Yeah, I'm an easy going guy but I always gotta have my way

[interlude]

Well, come on, pretty baby, let's go out tonight
Your mom won't have to worry, everything'll be alright
Don't let me hear you talking, just be there when I call
'Cause what I do I do my way or it won't be done at all

Little girl, can you hear what I say?
Yeah, I'm an easy going guy but I always gotta have my way

[interlude 2]

I'm an easy going guy but I always gotta have my way

[spoken]
You better believe it, baby

=============
litgo@aol.com
  development and support by
dmitry ivanov