rock
 
|tablatures   |lyrics   |discussion forums   |more tabs @ XGuitar.com

The_who tabs

My Generation (live medley) guitar tab

My Generation (medley)
By The Who
>From Live at Leeds, Feb. 14, 1970
Written by Pete Townshend 1965 TRO-Devon Music, Inc.

==============
transcribed by
litgo@aol.com
==============

Note: The 'sections' are derived from the Canadian LP
      pressing.
Note: Indicated times are elapsed time from the MCA remaster CD
      tracking.
Note: Chord voicings, where indicated, are for that section only.
Note: All patterns, leads and timing are approximate.
Note: Pedal on/off indicators are for fuzz pedal. Vol up/down
      indicators are for guitar control. 


a. My Generation
b. See Me, Feel Me (We're Not Gonna Take It)
c. Higher
d. Overbridge
e. Coming Out To Get You
f. Underture
g. Driving Four


[a. "My Generation" - 0:00]

A               x022xx
A/G             3x22xx
Asus4/G         x04230
A7              x05250
[first modulation]
B               x244xx
B/A             x044xx
[outro]
D               xx0232
Dsus4/C         x30233

[intro]

|A A A A |A/G A/G A/G A/G |A A A A |A/G A/G A/G A/G |
|--------|----------------|--------|----------------|
|--------|----------------|--------|----------------|
|2-2-2-2-|2---2---2---2---|2-2-2-2-|2---2-----------|
|2-2-2-2-|2---2---2---2---|2-2-2-2-|2---2-----------|
|0-0-0-0-|----------------|0-0-0-0-|----------------|
|--------|3---3---3---3---|--------|3---3-----------|

[verse]
|A            |              |A  A     A    A |A/G A/G A/G A/G |
 People try to put us  down                             Oh,
                             (Talkin' 'bout my gen-er--a---tion)
|-------------|--------------|----------------|----------------|
|-------------|--------------|----------------|----------------|
|-------------|--------------|2--2-----2----2-|2---2---2---2---|
|-------------|--------------|2--2-----2----2-|2---2---2---2---|
|0------0-0---|0--0--0--0----|0--0-----0----0-|----------------|
|--3-3-3----3-|--3-3-----3---|----------------|3---3---3---3---|
 [p.m.                    ]                      

|A          |     |A  A     A    A |A/G A/G A/G A/G |
 Just bec-cause we get around 
                  (Talkin' 'bout my gen-er--a---tion)
|-----------|-----|----------------|----------------|
|-----------|-----|----------------|----------------|
|-----------|-----|2--2-----2----2-|2---2-----------|
|-----------|-----|2--2-----2----2-|2---2----------2|
|----0------|-0---|0--0-----0----0-|---------------0|
|3-3---3----|3-3-3|----------------|3---3-----------|
 [p.m.            ]                      

|A                  |              |A  A     A    A |A/G A/G A/G A/G |
 Things they do look awful  c-c-    cold                          I   
                                   (Talkin' 'bout my gen-er--a---tion)
|-------------------|--------------|----------------|----------------|
|-------------------|--------------|----------------|----------------|
|-------------------|--------------|2--2-----2----2-|2---2---2---2---|
|-------------------|--------------|2--2-----2----2-|2---2---2---2---|
|---0---0----0------|------------0-|0--0-----0----0-|----------------|
|3-3-3---------3----|3-3-3-----3---|----------------|3---3---3---3---|
 [p.m.                             ]                      

 hope I die before I get old                       This is my gener- 
                              (Talkin' 'bout my gen-er--a---tion)
|-------------------|---------|----------------|----------------|
|-------------------|---------|----------------|----------------|
|-------------------|---------|2--2-----2----2-|2---2---2---2---|
|-------------------|---------|2--2-----2----2-|2---2---2---2---|
|-------------------|---------|0--0-----0----0-|----------------|
|-------------------|---------|----------------|3---3---3---3---|

[chorus]
|A   Asus4|A7/G   Asus4/G   |A   Asus4|A7/G Asus4/G|
-ation       This is my generation, baby
|---------|-----------------|---------|------------|--
|-2--3---/|5---------3------|---2--3-/|5---------3-|--
|-2--2----|2---------2------|---2--2--|2---------2-|2-
|-2--4---/|5---------4------|2--2--4-/|5---------4-|2-
|0--------|-----------------|0----0---|-----------0|0-
|---------|-----------------|---------|------------|--

[repeat verse]
Why don't you all f-f-fade away 
                     (Talkin' 'bout my generation)
And don't try and dig what what we all s-s-say 
                               (Talkin' 'bout my generation)
I'm not trying to cause a b-big s-s-sensation 
                         (Talkin' 'bout my generation)
I'm Talkin' 'bout my g-g-g-generation 
                          (Talkin' 'bout my gen--------)

[repeat chorus]
My generation, this is my generation, baby

[bass solo]          (G bass     )                      (G bass     )
|A5 |   |A5 A5 A6 A6 |A7 A7 A6 A6 |A5  |   |A5 A5 A6 A6 |A7 A7 A6 A6 |
|---|---|------------|------------|----|---|------------|------------|
|---|---|--7^\-------|------------|----|---|---8---7----|5-----------|
|---|---|--7^\-5~----|2p0---------|----|---|------------|---4\-------|
|2--|---|--------7---|----0h2-----|----|---|--7--7-----7|------------|
|0--|---|0-----------|---------3^-|0---|---|0-----------|------------|
|---|---|------------|------------|----|---|------------|------------|

                      (G bass     )                     (G bass     )
|A5  |   |A5 A5 A6 A6 |A7 A7 A6 A6 |A5 |   |A5 A5 A6 A6 |A7 A7 A6 A6 |
|----|---|------------|------------|---|---|------------|------------|
|----|---|------------|------------|---|---|------------|------------|
|----|---|-4^\-2p0----|------------|2--|---|------------|------------|
|----|---|------------|--0---------|2--|---|------------|---------2-2|
|0---|---|0-----------|3--0-3-0---0|0--|--x|0-0-0---0---|-0-0-0-0-0-0|
|----|---|------------|---------3--|---|---|------3-----|3-3-3-3-----|

|A5     |A/G   |A5      |A/G                     |
|-------|------|--------|------------------------|
|-------|------|--------|------------------------|
|2----2-|2-----|2----2--|------------------------|
|2----2-|2-----|2----2--|0h2p0-0h3p0-0h4p0-0h5p0-|
|0----0-|------|0----0-0|------------------------|
|-------|3-----|--------|------------------------|

[third verse; modulate to B]

|B                  |   |B    B    B    B |B/A B/A B/A B/A | 
    Why don't you all  f-fade away                 Yeah,and
                        (Talk-in' 'bout my gen--e--ra--tion)
|-------------------|---|-----------------|----------------|
|-------------------|---|-----------------|----------------|
|4------------------|---|4----4----4----4-|4----4--4---4---|
|4------------------|---|4----4----4----4-|4----4--4---4---|
|2------------------|---|2----2----2----2-|0----0--0---0---|
|-------------------|---|-----------------|----------------|

|B             |         |B    B    B    B |B/A B/A B/A B/A | 
 Don't try and d-dig what we all s-s-say                 (I'm)
                         (Talk-in' 'bout my gen--e--ra--tion)
|--------------|---------|-----------------|----------------|
|--------------|---------|-----------------|----------------|
|4-------------|---------|4----4----4----4-|4----4--4---4---|
|4-------------|---------|4----4----4----4-|4----4--4---4---|
|2--2p0h2p0h2p0|h2p0h2p0-|2----2----2----2-|0----0--0---0---|
|--------------|---------|-----------------|----------------|

I'm not trying to cause a b-b- bloody big s-s-sensation 
                                       (Talkin' 'bout my generation)
I'm just talkin' 'bout my g-generation 
                           (Talkin' 'bout my gen...........)

[third chorus]
       |B     |B/A         |B     |B/A        |
My generation,  This is my generation, baby
       |------|------------|------|-----------|
       |------|------------|------|-----------|
       |4----4|----------4-|4----4|4----------|
       |4----4|----------4-|4----4|4----------|
       |2----2|0---------0-|2----2|0----------|
       |------|------------|------|-----------|

[modulate to D for finale]
                  x3
||:D   |Dsus4/C  :||D            |Dsus4/C         |
                        Yeah, I'm talking about it
||-2---|3---------||2------------|3---------------|
||-3---|3---------||3------------|3---------------|
||-2---|2---------||2------------|2---------------|
||-0---|----------||0------------|----------------|
||-----|3---------||-------------|3---------------|
||-----|----------||-------------|----------------|
                                      [pedal on]

|D   |C            |D                  |C        |D         |C  |D |C  |
|----|-------------|-------------------|---------|----------|---|--|---|
|----|-------------|-------------------|---------|----------|---|--|---|
|12^\|----10-12-10-|12-----------------|---------|----------|---|--|---|
|----|-------------|-----12-12-10h12---|-10h12/12|-10h12/12/|12-|--|---|
|----|-------------|-------------------|---------|----------|---|--|x--|
|----|-------------|-------------------|---------|----------|---|--|10\|
                                                                   [pedal off]

|D     Cadd9 G/B|D    Cadd9 G/B|D        Cadd9  |D     Cadd9 G/B|
|-------3-3-3---|----2--3-3-3--|----2-----------|---------------|
|---3---3-3-3---|----3--3-3-3--|----3-----------|---3----3------|
|2--2---0-0-0---|2---2--0-0-0--|2---2----0-0----|2--2----0-0-0--|
|0--0-0---------|0-0-0---------|0-0-3^-0--------|0--3^-0--------|
|-----0-3-3-2-0-|-------3-3-2-3|---------3-3---0|--------3-3-2-3|
|---------------|--------------|-------------3^-|---------------|

|D     Cadd9 G/B|D    Cadd9|D   C+9 G/B|D   C+9 G/B|
|---------------|----------|2-2---3-3--|2-2---3-3--|
|---3----3------|3-----3-3-|3-3---3-3--|3-3---3-3--|
|2--2----0-0-0--|2-----0-0-|2-2---0-0--|2-2---0-0--|
|0--3^-0--------|0---------|0-0-------0|0-0--------|
|--------3-3-2-3|---0--3-3-|------3-2--|------3-2--|
|---------------|----------|-----------|-----------|
                                           [*switch to neck pickup]

                 x13
||:D   Cadd9 G/B:||D5              |                | 
||-2-2-----3-3---||----------------|----------------|
||-3-3--3--3-3---||----------------|----------------|
||.2-2--0--0-0--.||2-2-2-2-2-2-2-2-|2-2-2-2-2-2-0---|
||.0-0---------0.||0-0-0-0-0-0-0-0-|0-0-0-0-0-0-0---|
||------3--2-2---||----------------|----------------|
||---------------||----------------|----------------|

[b. "See Me, Feel Me (We're Not Gonna Take It)" - 2:42]

Ebmaj7    xx1333              B5        x244xx              
Fsus4     xx3311              G         3x0033              
F         xx3211              E5        022400 and 022xxx
B7sus4    x24455              A5        x022xx and x02255
Bsus4     7(t)x997x           C5        x355xx
B         7(t)x987x           D        (2t)x0232


|Ebmaj7 |Fsus4 F |Fsus4  F |G     |Ebmaj7 |Fsus4  F |Fsus4   F |
                                   See me, feel me, touch me, 
|3------|1---1---|1---1----|3-----|3------|1------1-|1-------1-|
|3------|1---1---|1---1----|3-----|3------|1------1-|1-------1-|
|3------|3---2---|3---2---0|0----0|3------|3------2-|3-------2-|
|1------|3---3---|3---3---0|0-----|1------|3------3-|3-------3-|
|-------|--------|---------|------|-------|---------|----------|
|-------|--------|---------|------|-------|---------|----------|

|Emsus4         |E                    |B7sus4      |B               |
 heal me                                                List'ning to ..
|---------------|---------------------|------5---5-|----------------|
|---------------|---------------------|------5---5-|----------------|
|---------------|---------------------|------4-4-4-|4-4-4----4----4-|
|---------------|---------------------|------4-4-4-|4-4-4----4----4-|
|2-2-2-2--------|----2-2-2-2-2-------0|2-----2---2-|2-2-2----2----2-|
|0-0-0-0-0-0-0-0|0-0-0-0-0-0-0--0-2-4-|------------|----------------|
                               [switch to bridge pickup]

|A5   B5       |C5              |A5   B5       |E5    
 you, I get the music, Gazing at you, I get the heat  
|--------------|----------------|--------------|------
|--------------|----------------|--------------|------
|--2-----4-----|5--5----5---5-5-|--2-----4-----|------
|2-2--4--4-----|5--5----5---5-5-|2-2--4--4-----|2-2---
|0-0--2--2-----|3--3----3---3-3-|0-0--2--2-----|2-2---
|--------------|----------------|-----------0-0|0-0-0-

         |A5   B5         |C5               |G        D
Following you, I climb the mountain, I get excitement at your
---------|----------------|-----------------|3--------2------|
---------|----------------|-----------------|3--------3------|
---------|--2-----4-------|---5--------5----|0--------2------|
---------|2-2--4--4-------|---5----5---5---5|0--------0------|
--------0|0-0--2--2-------|3--3----3---3---3|----------------|
0-0--0---|----------------|-----------------|----------------|

|B7sus4         |B5              |
 feet               (Right behind...)
|---------------|----------------|
|---------------|----------------|
|4--4-4-4-4-4-4-|4-4-4-4-4-4-4-4-|
|4--4-4-4-4-4-4-|4-4-4-4-4-4-4-4-|
|2--2-2-2-2-2-2-|2-2-2-2-2-2-2-2-|
|---------------|----------------|

            |A5   B5       |C5
Right behind you, I see the millions

  |A5   B5       |E5
On you, I see the glory

    |A5   B5    |C5
From you, I get opinions

    |G    D        |Bsus4           |B         |
From you, I get the story
    |3----2--------|----------------|----------|
    |3----3--------|7-7-7-7-7-7-7-7-|7--7------|
    |0----2--------|9-9-9-9-9-9-9-9-|8--8------|
    |0----0--------|9-9-9-9-9-9-9-9-|9--9---9--|
    |--------------|----------------|----------|
    |--------------|7T7-7-7-7-7-7-7-|7--7---7--|
                    (thumb)               [pedal on]

|A5   B5      |C5    |A5   B5       |E5                      |
|-------------|------|--------------|------------------------|
|-------------|------|--------------|------------------------|
|-------------|------|-------------9|7h9-9-7h9-9-7h9-9-7h9-9-|
|2---------4--|5-----|2-------------|------------------------|
|0-------0-2-0|3-----|0----0-0h2-/--|-----------------------0|
|-------------|------|--------------|------------------------|

|A5   B5   |C5       ||G     D   |B      |            |       |       |
|----------|---------||----------|-------|------------|-------|-------|
|-2----4---|--17--17-||--12-----2|3/5--3h|5-3h5-3h5-3h|5-3----|-------|
|----------|--------0||----------|-------|------------|---4-2-|0------|
|2---/4---/|17--17---||12---\2-2-|-------|------------|-------|-2-0---|
|----------|---------||----------|-------|------------|-------|-------|
|----------|---------||----------|-------|------------|-------|----3^-|
                      [edited from remaster]

|A5   B5     |C5    |A5   B5     |E5                   |
|------------|------|------------|---------------------|
|------------|------|------------|---------------------|
|------------|------|------------|---------------------|
|2--------4-4|5-----|2----4------|---------------------|
|0------0-2-2|3-----|0----2------|---------------------|
|------------|------|--------0/0-|0----0/0/0--0/0/0--0-|

|A5   B5    |C5    ||G    |Cadd9  |G    |Cadd9  |
|-----------|------||3----|3------|3----|3------|
|-----------|------||3----|3------|3----|3------|
|-----------|------||0----|0------|0----|0------|
|2-------4-4|5-----||0----|-------|0----|-------|
|0-----0-2-2|3-----||-----|3------|-----|3------|
|-----------|------||3----|-------|3----|-------|
[end edited segment]

[c. "Higher" (aka Naked Eye) - 4:02]

F6/9           xx3233
Cadd9 [chorus] x32033 
G              3x0033 |F6/9       |Cadd9      |G          |              |
|3------3---|3-3------3-|---3-------|----3-------3-|
|3-----3----|3--3--3----|---3--3--3-|-3-----3------|
|2--0h2--0--|0------0---|0--------0-|--------------|
|3----------|2--0h2-----|0----------|----0-0------0|
|-----------|3-3--------|-----------|--3-----3-2---|
|-----------|-----------|3----------|--------------|

|F6/9       |Cadd9      |G          |             |
|3-----3----|3-3------3-|---3-------|---------3---|
|3------3---|3--3--3----|---3--3--3-|-3--3--3-----|
|2--0h2---0-|0------0---|0--------0-|0---0-0------|
|3----------|2--0h2-----|0-----0--0-|0---0-0-----0|
|-----------|3-3--------|-----------|-------------|
|-----------|-----------|3----------|3------------|

|F6/9   |Cadd9    |G    |       |F6/9     |Cadd9     |G       |     |
    So,    so      very long       goodbye   goodbye    goodbye
|3------|3--------|3----|--3-3-3|3--------|3---------|3-------|-----|
|3------|3--------|3----|--3-3-3|3--------|3---------|3-------|-----|
|2-----2|0--------|0----|--0-0-0|2--------|0---------|0------0|0----|
|3-----3|2--------|0----|--0-0-0|3--------|2---------|0------0|0----|
|-------|3--------|-----|-------|---------|3---------|--------|-----|
|-------|---------|3----|--3-3-3|---------|----------|3------3|3----|

|F6/9   |Cadd9    |G    |        |F6/9                 |Cadd9    |
    So,  so very very long           goodbye              goodbye
|3------|3--------|3----|--------|---------------------|-----15--|
|3------|3--------|3----|--------|-------15-18-15-18/18|18^------|
|2------|0--------|0----|--17^17^|17^------------------|---------|
|3------|2--------|0----|--------|---------------------|---------|
|-------|3--------|-----|--------|---------------------|---------|
|-------|---------|3----|--------|---------------------|---------|

|G                |                 |F6/9     |Cadd9           |
|--15--15--15--15-|--15--15--15--15-|---------|----------------|
|18^-18^-18^-18^--|18^-18^-18^-18^--|18^---18^|18^---18^-18-15-|
|-----------------|-----------------|---0-----|----------------|
|-----------------|-----------------|---------|----------------|
|-----------------|-----------------|---------|----------------|
|-----------------|-----------------|---------|----------------|

|G                  |              |F6/9  |Cadd9     |
|-------------------|--------------|------|----------|
|-------------------|--------------|------|----------|
|-------------------|--------------|------|----------|
|7h9-7h9-7h9-7h9-7-3|3h5-3---------|3-----|----------|
|-------------------|------5-3-1---|------|3----2h3-2|
|-------------------|------------1-|------|----------|

|G           |            |F6/9  |Cadd9     |G                    |
|------------|------------|------|----------|--3------------------|
|------------|------------|------|----------|----6-6/8-6h8-6h8-6h8|
|------------|------------|------|----------|5^-------------------|
|--------5-5-|5-5-5-5-0-2-|3-----|----------|---------------------|
|------------|------------|------|3---------|---------------------|
|3-3-3-3-----|------------|------|----------|---------------------|

|G                  |F6/9            |Cadd9                  |
|-------------------|----------------|-----------------------|
|6h8-6h8-6h8-6h8-6-8|6h8-6h8-6h8-6h8-|6h8-6h8-6h8-6h8-6h8-6h8|
|-------------------|----------------|-----------------------|
|-------------------|----------------|-----------------------|
|-------------------|----------------|-----------------------|
|-------------------|----------------|-----------------------|

|G                      |G                      |
|-----------------------|-----------------------|
|6h8-6h8-6h8-6h8-6h8-6h8|6h8-6h8-6h8-6h8-6h8-6h8|
|-----------------------|-----------------------|
|-----------------------|-----------------------|
|-----------------------|-----------------------|
|-----------------------|-----------------------|

|F6/9                   |Cadd9                  |G       |       |
|-----------------------|-----------------------|--------|-------|
|6h8-6h8-6h8-6h8-6h8-6h8|6h8-6h8-6h8-6h8-6h8-6h8|6h8-6h8-|6h8-6h8|
|-----------------------|-----------------------|--------|-------|
|-----------------------|-----------------------|--------|-------|
|-----------------------|-----------------------|--------|-------|
|-----------------------|-----------------------|--------|-------|

|F6/9           |Cadd9          |G              |               |
|---------------|---------------|---------------|---------------|
|---10---10---10|---15---17---17|---15---15---15|---15---15---15|
|---------------|---------------|---------------|---------------|
|0h10-0h10-0h10-|0h15-0h17-0h17-|0h15-0h15-0h15-|0h15-0h15-0h15-|
|---------------|---------------|---------------|---------------|
|---------------|---------------|---------------|---------------|

|F6/9           |Cadd9          |G              |               |
|---------------|---------------|---------------|---------------|
|---10---10---10|---15---17---17|---15---15---15|---15---15---15|
|---------------|---------------|---------------|---------------|
|0h10-0h10-0h10-|0h15-0h17-0h17-|0h15-0h15-0h15-|0h15-0h15-0h15-|
|---------------|---------------|---------------|---------------|
|---------------|---------------|---------------|---------------|

|F6/9           |Cadd9       |G           |            |
|---------------|------------|------------|------------|
|---10---10---10|---8---8---8|---5---3---3|---3---3---3|
|---------------|------------|------------|------------|
|0h10-0h10-0h10-|0h8-0h8-0h8-|0h5-0h3-0h3-|0h3-0h3-0h3-|
|---------------|------------|------------|------------|
|---------------|------------|------------|------------|

|F6/9           |Cadd9          |G              |              |
|---------------|---------------|---------------|------------2/|
|---10---10---10|---15---17---17|---15---13---12|---10---10--2/|
|---------------|---------------|---------------|--------------|
|0h10-0h10-0h10-|0h15-0h17-0h17-|0h15-0h13-0h12-|0h10-0h10-0---|
|---------------|---------------|---------------|--------------|
|---------------|---------------|---------------|--------------|

|F6/9   |Cadd9    |G    |  |F6/9           |Cadd9    
    So        very long       So very lon----------g
|3------|3--------|3----|--|3--------------|3--------
|3------|3--------|3----|--|3--------------|3--------
|-------|0--------|0----|--|2--------------|0--------
|-------|2--------|0----|--|3--------------|2--------
|-------|3--------|-----|--|---------------|3--------
|-------|---------|3----|--|---------------|---------
                                           [pedal off; arpegg]

["Overbridge" - 5:52]

[vol low; pedal D throughout; finger pick]

|--------|3------3-3--|2-----------|3------3-3--|5---3--------|
|--------|5------3-3--|3-----------|5------3-3--|7---5--------|
|--------|5------4-4--|2-----------|-------4-4--|7---5--------|
|0-0-0-0-|--0-0--0-0--|0---0-0-0-0-|-0-0-0-0-0--|0---0-0-0-0-0|
|--------|------------|------------|------------|-------------|
|--------|------------|------------|------------|-------------|

|-3------3-3--|2-----------|5-5-3-5-3----|5-5-3-7-----|
|-5------3-3--|3-----------|-------------|------------|
|-5------4-4--|2-----------|7-7-5-7-5----|7-7-5-9--5--|
|-0-0-0--0-0--|0---0-0-0-0-|0-0-0-0-0-0--|0-0-0-0--0--|
|-------------|------------|-------------|------------|
|-------------|------------|-------------|------------|

                              *drum
|--5-5-3-5-3---|3-3-3-3-2-------|5-5-3-5-3---|
|--------------|----------------|------------|
|--7-7-5-7-5---|5-5-4-4-2-------|7-7-5-7-5---|
|0-0-0-0-0-0-0-|0-0-0-0-0-0-0-0-|0-0-0-0-0-0-|
|--------------|----------------|------------|
|--------------|----------------|------------|

|-5-5-3-7--5---|7/5--7/5-|7/5--7/5-|7/5--|7/5-|---
|--------------|8/6--8/6-|8/6--8/6-|8/6--|8/6-|---
|-7-7-5-7--5---|7/5--7/5-|7/5--7/5-|7/5--|7/5-|---
|-0-0-0-0--0-0-|---------|---------|-----|----|---
|--------------|---------|---------|-----|----|---
|--------------|---------|---------|-----|----|---

[prelude of "Underture" - 6:35]

|D       |   |    |     |     |Cadd9 G/B  |D   |     |     |Cadd9 G/B |
|-0------|---|----|-----|-----|-----------|----|-----|-----|----------|
|--3-----|---|3---|--3--|--3--|-----------|3-3-|--3-3|--3-3|----------|
|---2----|---|2---|--2--|--2--|--0-0--0-0-|2-2-|--2-2|--2-2|0-0-0-----|
|0----0--|---|0---|--0--|--0--|-0----0----|0-0-|--0-0|--0-0|-0--------|
|------0h|3--|----|3----|3----|3----2-----|----|3----|3-0--|3----2-0-0|
|--------|---|----|-----|-----|-----------|----|-----|-----|--------3-|

|D   |     |     |Cadd9 G/B|D   |       |       |Cadd9 G/B|
                            Ooooh yeah
|----|-----|-----|---------|----|-------|-------|---------|
|3-3-|--3-3|--3-3|---------|3-3-|----3--|----3--|---------|
|2-2-|--2-2|--2-2|0-0------|2-2-|----2--|----2--|0-0------|
|0-0-|--0-0|--0-0|0-0-0----|0-0-|--0-0--|--0-0--|0-0------|
|----|3----|3-0--|3-3-2--0-|----|3------|3------|3-3--2-0-|
|----|-----|-----|--------3|----|-------|-------|--------3|
                 [vol up]

|D   |       |       |Cadd9 G/B|D   |       |       |Cadd9 G/B|
 My my my my my...
|----|-------|-------|---------|----|-------|-------|---------|
|3-3-|----3--|----3--|---------|3-3-|----3--|----3--|---------|
|2-2-|----2--|----2--|---------|2-2-|----2--|----2--|---------|
|0-0-|--0-0--|--0-0--|0-0------|0-0-|--0-0--|--0-0--|---------|
|----|3------|3------|3-3--2-0-|----|3------|3------|3-3--2-0-|
|----|-------|-------|--------3|----|-------|-------|--------3|

|D   |       |       |Cadd9 G/B|D       |       |      |Cadd9 G/B|
|----|-------|-------|---------|--------|-------|------|---------|
|3-3-|----3--|----3--|---------|--------|-------|------|---------|
|2-2-|----2--|----2--|---------|--------|-------|------|---------|
|0-0-|--0-0--|--0-0--|---------|--------|---3---|---3--|---------|
|----|3------|3-----0|3-3--2-0-|3h5-3h5-|3h5--5-|3h5---|--------3|
|----|-------|-------|--------3|--------|-------|----1-|3-1-3-1--|
                               [pedal on][chords implied by bass]

|D       |       |      |Cadd9 G/B|D     |          |       |Cadd9 G/B|
|--------|-------|------|---------|------|----------|-------|---------|
|--------|-------|------|---------|------|----------|----5^-|5^\------|
|--------|-------|------|---------|------|----------|-5-7---|---5-7-5-|
|--------|---3---|---3--|---------|------|---3-5-/7-|7------|--------0|
|3h5-3h5-|3h5--5-|3h5---|--------3|3h5-5-|3h5-------|-------|---------|
|--------|-------|----1-|3-1-3-1--|------|----------|-------|---------|

|D         |              |                    |Cadd9  G/B|
|----------|--------------|--------------------|----------|
|/10h12-12^|13-12-10------|13-12-10------------|----------|
|----------|--------12-10-|--------12-10-------|---10-----|
|----------|--------------|---------------12-10|12---12-0-|
|----------|--------------|--------------------|----------|
|----------|--------------|--------------------|----------|

|D          |             |                 |Cadd9    G/B    |
|-----------|-------------|-----------------|----------------|
|---------15|15p13--13h15-|13-10--10--------|----------------|
|14-12h14---|-----14------|-----12--12------|----------------|
|-----------|-------------|-----------12-12-|10-12-12-10-12-0|
|-----------|-------------|-----------------|---------------0|
|-----------|-------------|-----------------|----------------|

|D   |       |       |Cadd9 G/B|D         |
|----|-------|-------|---------|----------|
|3-3-|----3--|----3--|---------|3---------|
|2-2-|----2--|----2--|---------|2---------|
|0-0-|--0-0--|--0-0--|0-0------|0---------|
|----|3------|3------|3-3--2-0-|----------|
|----|-------|-------|--------3|----------|

|                                                                    |
|--------------------------------------------------------------------|
|----13-10-13-10-13-10-13-10-13/14/15-15/15/15/15/15-15/13-----------|
|12^-----------------------------------------------------------------|
|---------------------------------------------------------------0----|
|---------------------------------------------------------------0----|
|---------------------------------------------------------------0----|

|--------------------------------------------|
|--------------------------------------------|
|0h2p0h2p0h2p0h2p0h2p0h2p0h2p0h2p0h2---------|
|------------------------------------4-------|
|--------------------------------------------|
|--------------------------------------------|
[pedal off]

[8:06; finger-pick -- note: approximate pattern]

|-----------------------------------------------------|
|------------0-----------5----5----5----5----5--------|
|--0-0-0-0-0-0-0-0--------0h2--0h2--0h2--0h2--0h2-----|
|0-0-0-0-0-0-0-0-0------0----0----0----0----0---------|
|------------------------------------0--0-----0--0----|
|-----------------------------------------------------|

|---------------------------------------------------------------------|
|-5--5--5--5--5--5--5--5--5--5--5--5--5--5--5--5--5--5--5--5--5--5--5-|
|--5--5--5--5--3--3--3--3--2--2--2--2--3--3--3--3--2--2--2--2--0--0-0-|
|0--0--0--0--0--0--0--0--0--0--0--0--0--0--0--0--0--0--0--0--0--0---0-|
|-0---0-----0-----0-----0-----0-----0-----0-----0-----0-----0-----0-0-|
|---------------------------------------------------------------------|
                                                                  [pedal on]


[e. "Coming Out To Get You" - 8:43]

|E5        |  G A G A D |E5          |E    |
|----------|------------|------------|-----|
|----------|------------|------------|-----|
|----------|------------|------------|-----|
|----------|------------|------------|-----|
|2-2-2-2-2-|--5-0-5-0-5-|2-2-2-2-2-5h|7---\|
|0-0-0-0-0-|--3---3-----|0-0-0-0-0---|-----|

|E5        |  G A G A D |E5          |E          |
|----------|------------|------------|-----------|
|----------|------------|------------|-----------|
|----------|------------|------------|-----------|
|----------|------------|------------|-----------|
|2-2-2-2-2-|--5-0-5-0-5-|2-2-2-2-2-5h|7---5-0----|
|0-0-0-0-0-|--3---3-----|0-0-0-0-0---|--------3^-|

|E5        |  G A G A D |E5          |E          |
 See me                               coming out to 
|----------|------------|------------|-----------|
|----------|------------|------------|-----------|
|----------|------------|------------|-----------|
|----------|------------|------------|-----------|
|2-2-2-2-2-|--5-0-5-0-5-|2-2-2-2-2-5h|7---5-0----|
|0-0-0-0-0-|--3---3-----|0-0-0-0-0---|--------3^-|

|E5        |  G A G A D |E5          |E          |
 get you                                  Oh
|----------|------------|------------|-------------|
|----------|------------|------------|-------------|
|----------|------------|------------|-------------|
|----------|------------|------------|-------------|
|2-2-2-2-2-|--5-0-5-0-5-|2-2-2-2-2-5h|7---7-5-0----|
|0-0-0-0-0-|--3---3-----|0-0-0-0-0---|----------3^-|

|E5        |  G A G A D |E5          |E            |
 See me                             coming out to 
|----------|------------|------------|-------------|
|----------|------------|------------|3------------|
|----------|------------|------------|2------------|
|----------|------------|------------|0------------|
|2-2-2-2-2-|--5-0-5-0---|2-2-2-2-2---|----------0--|
|0-0-0-0-0-|--3---3---3^|0-0-0-0-0---|------3^-----|

|E5        |  G A G A D |E5          |E          |
 get you                                  
|----------|------------|------------|-----------|
|----------|------------|------------|-----------|
|----------|------------|------------|-----------|
|----------|------------|------------|-----------|
|2-2-2-2-2-|--5-0-5-0-5-|2-2-2-2-2-5h|7----------|
|0-0-0-0-0-|--3---3-----|0-0-0-0-0---|-----------|

|E5               |   G  A  G  A D  |E5                  |E       |
 So       slow     
|-----------------|-----------------|--------------------|--------|
|12-12-12-12------|-----------------|12-12-12-12-14-12---|--------|
|12-12-12-12------|-----------------|12-12-12-12-14-12---|--------|
|-----------14-12-|-----------------|------------14------|12x-----|
|--------------12-|---12-14-12-10---|--------------------|12x-----|
|-----------------|--------------10-|--------------------|---12\--|

|E5            |  G A G A D |E5          |E          |
|--------------|------------|------------|-----------|
|--------------|------------|------------|-----------|
|--------------|------------|------------|-----------|
|--------------|------------|------------|-------5~--|
|2-2-2-2-2-3h5~|----------5-|2-2-2-2-2-5h|7---5-7--7-|
|0-0-0-0-0-----|--3-5-3-5---|0-0-0-0-0---|-----------|

|E5             |             |E5          |E             |
|---------------|-------------|------------|--------------|
|---------------|-------------|------------|--------------|
|---------------|-------------|------------|--------------|
|---------------|-------------|------------|--------------|
|2-2-2-2-2------|-------------|2-2-2-2-2-5h|7---5-7-5-----|
|0-0-0-0-0--5~--|--3-3-3h5-5/5|0-0-0-0-0---|----------7-5\|

|E5             |            |E5          |E            |
|---------------|------------|------------|-------------|
|---------------|------------|------------|-------------|
|---------------|------------|------------|----------7--|
|---------------|------------|------------|-------7-9-9-|
|2-2-2-2-2------|----------5-|2-2-2-2-2-5h|7---5-7------|
|0-0-0-0-0--<12>|--3-5-3-5---|0-0-0-0-0---|-------------|

|E5             |  G  A  G  A D  |E5               |E            |
                                                          Can you 
|---------------|----------------|-----------------|-------------|
|---------------|--7~-7~-7~------|-----------------|-------------|
|7/9-9-9-9--9~--|-----------9-7--|7h9-9-9-9-9--12^~|12------12~--|
|---------------|----------------|-----------------|--14p12----14|
|---------------|----------------|-----------------|-------------|
|---------------|----------------|-----------------|-------------|

|E5                 |  G   A   G   A  D  |E5              |E         |
 feel me                                                   Coming out to
|-----12------------|12---12---12---12---|----------------|----------|
|---12--15-12--15^--|--15^--15^--15^--15^|15-12--12-------|----------|
|14^----------------|--------------------|-----14---12~---|----------|
|-------------------|--------------------|-------------14-|14-12-----|
|-------------------|--------------------|----------------|-----14---|
|-------------------|--------------------|----------------|-------12\|

|E5        Em9|      |E5         |E5   |
 touch you                                
|----------3--|------|-----------|-----|
|----------3--|------|-----------|-----|
|----------2--|------|-----------|-----|
|----------2--|------|-----------|-----|
|2------------|------|-----------|-----|
|0-0-0-0-0----|------|0-0-0-0-0--|0----|
                                   [pedal off; vol down]

["Underture" - 9:54]

[down-strum slowly near bridge to arpeggiate chord]

|E/D   |Es4/D  |E/D  |Es4/D |E/D   |Es4/D |E/D  |Es4/D  |E/D   |Es4/D  |
|4-----|5---0--|4----|5--0--|4-----|5--0--|4----|5---0--|4-----|5---0--|
|5-----|5---5--|5----|5-----|5-----|5-----|5----|5------|5-----|5------|
|4-----|4---4--|4----|4-----|4-----|4-----|4----|4------|4-----|4------|
|0-----|0---0--|0----|0-----|0-----|0-----|0----|0------|0-----|0------|
|------|-------|-----|------|------|------|-----|-------|------|-------|
|------|-------|-----|------|------|------|-----|-------|------|-------|

|E/D   |Es4/D  |D    |D+5 Ds2|E/D   |Es4/D   |E      |    |
|4-----|5---0--|2----|5---0--|4-----|5---0---|4------|----|
|5-----|5------|3----|3------|5-----|5-------|5------|----|
|4-----|4------|2----|2------|4-----|4-------|4------|----|
|0-----|0------|0----|0------|0-----|0-------|0------|----|
|------|-------|-----|-------|------|--------|-------|----|
|------|-------|-----|-------|------|--------|-------|----|

|---------|---------------|---------|-----------------|
|---------|---------------|---------|-----------------|
|---------|---------------|---------|-----------------|
|2-0------|0x--2-0--------|2-2-0----|0x--0h2-0--------|
|---------|0x------3-2-0--|---------|0x--------3-2-0--|
|---------|--------------3|---------|----------------3|
[vol up, pedal on]

|---------|----------------|
|---------|----------------|
|---------|----------------|
|0--------|---0------------|
|--3------|--(0)-3-2-0---0-|
|---------|------------3---|

|B              |              |B7sus4         |B               |
|---------------|--------------|5--------------|----------------|
|---------------|--------------|5--------------|4---------------|
|---------------|--------------|4------4-4-4-4-|4-4-4-4-4-4-4-4-|
|4--4-4-4-4-4-4-|4-4-4-4-4-4-4-|4--4-4-4-4-4-4-|4-4-4-4-4-4-4-4-|
|2--2-2-2-2-2-2-|2-2-2-2-2-2-2-|2--2-2-2-2-2-2-|2-2-2-2-2-2-2-2-|
|---------------|--------------|---------------|----------------|
[pedal off]

|E/D D          | E/D  D   A/D   |E/D D          | E/D  D   E/D   |
|4---2----------|--4---2---5-----|4---2----------|--4---2---4-----|
|5---3----------|--5---3---5-----|5---3----------|--5---3---5-----|
|4---2----------|--4---2---6-----|4---2----------|--4---2---4-----|
|0-0-0-0-0-0-0-0|0-0-0-0-0-0-0-0-|0-0-0-0-0-0-0-0|0-0-0-0-0-0-0-0-|
|---------------|----------------|---------------|----------------|
|---------------|----------------|---------------|----------------|

|F#/D Bb/D      | F#/D Bb/D F#/D |G/D            |               |
|6---6----------|--6---6---6-----|7--------------|---------------|
|7---6----------|--7---6---7-----|8--------------|---------------|
|6---7----------|--6---7---6-----|7--------------|---------------|
|0-0-0-0-0-0-0-0|0-0-0-0-0-0-0-0-|0--------------|---------------|
|---------------|----------------|---------------|---------------|
|---------------|----------------|---------------|---------------|

|G/D  Gs4/D |G/D   Gsus2/D    |G    Gsu4/D|G5/D|   |
|7-----8----|7----------------|7-----8----|10--|---|
|--8-----8--|--8---10--10-8---|--8-----8--|----|---|
|----7-----7|----7----------7-|----7-----7|----|---|
|-----------|-----------------|-----------|----|---|
|-----------|-----------------|-----------|----|---|
|-----------|-----------------|-----------|----|---|

|G/D F/D         | G/D F/D C/D    |G/D   C/D   |F/D             |
|7---5-----------|--7---5---8-----|7-----8-----|5---------------|
|8---6-----------|--8---6---8-----|8-----8-----|6---------------|
|7---5-----------|--7---5---9-----|7-----9-----|5---------------|
|0-0-0-0-0-0-0-0-|0-0-0-0-0-0-0-0-|0-0-0-0-0-0-|0-0-0-0-0-0-0-0-|
|----------------|----------------|------------|----------------|
|----------------|----------------|------------|----------------|

|G/D F/D         | G/D F/D C/D    |G/D   C/D   |D                |
|7---5-----------|--7---5---8-----|7-----8-----|10---------------|
|8---6-----------|--8---6---8-----|8-----8-----|10---------------|
|7---5-----------|--7---5---9-----|7-----9-----|11---------------|
|0-0-0-0-0-0-0-0-|0-0-0-0-0-0-0-0-|0-0-0-0-0-0-|-0-0-0-0-0-0-0-0-|
|----------------|----------------|------------|-----------------|
|----------------|----------------|------------|-----------------|

|C/D             |D               |A7sus4/D        |D               |
|11--------------|10--------------|10--------------|10--------------|
|12--------------|10--------------|8---------------|10--------------|
|11--------------|11--------------|9---------------|11--------------|
|-0-0-0-0-0-0-0-0|-0-0-0-0-0-0-0-0|0--0-0-0-0-0-0-0|-0-0-0-0-0-0-0-0|
|----------------|----------------|----------------|----------------|
|----------------|----------------|----------------|----------------|
 [arpeggiate                         ] 

|C/D      D       |C/D      D       |C/D D   C/D D   |C/D D   C/D D   |
|11-------10------|11-------10------|11--10--11--10--|11--10--11--10--|
|12-------10------|12-------10------|12--10--12--10--|12--10--12--10--|
|11-------11------|11-------11------|11--11--11--11--|11--11--11--11--|
|-0-0-0-0--0-0-0-0|-0-0-0-0--0-0-0-0|-0-0-0-0-0-0-0-0|-0-0-0-0-0-0-0-0|
|-----------------|-----------------|----------------|----------------|
|-----------------|-----------------|----------------|----------------|

|E   |     |     |     |     |     |     |     |
|----|-----|-----|-----|-----|-----|-----|-----|
|----|-----|-----|-----|-----|-----|-----|-----|
|----|-----|-----|-----|-----|-----|-----|-----|
|----|-----|-----|-----|-----|-----|-----|-----|
|----|-----|-----|-----|-----|-----|-----|-----|
|0---|----0|0----|----0|0----|xxxxx|0----|-----|
[pedal on]                   [pick slide]

|D            |      |E      |       |     |     |     |     |
|-------------|------|-----\-|-------|-----|-----|-----|-----|
|-------------|------|-----\-|-------|-----|-----|-----|-----|
|-----0h2p0h2p|0h2--/|4----\-|-------|-----|-----|-----|-----|
|0------------|------|-----\-|-------|-----|-----|-----|-----|
|0------------|------|-----\-|--/14\-|-----|-----|-----|-----|
|0------------|------|-----\-|-------|0----|-----|-----|-----|
                          [push forward on neck, back on gtr body]
                          [note: use caution when attempting this]

|--------|--------------|--------|----------------|
|--------|--------------|--------|----------------|
|--------|--------------|--------|----------------|
|2-0-----|x--2-0--------|2-0-----|x--0h2-0--------|
|--------|x------3-2-0--|--------|x--------3-2-0--|
|--------|-------------3|--------|---------------3|
[pedal off]

|---------|----------------|
|---------|----------------|
|---------|----------------|
|0--------|x--0------------|
|--3~-----|x-----3-2-0---0-|
|---------|------------3---|

|B               |              |B7sus4          |B               |
|----------------|--------------|----------------|----------------|
|----------------|--------------|----------------|----------------|
|----------------|----------4-4-|4-------4-4-4-4-|4-4-4-4-4-4-4-4-|
|4-4-4-4-4-4-4-4-|4-4-4-4-4-4-4-|4-4-4-4-4-4-4-4-|4-4-4-4-4-4-4-4-|
|2-2-2-2-2-2-2-2-|2-2-2-2-2-2-2-|2-2-2-2-2-2-2-2-|2-2-2-2-2-2-2-2-|
|----------------|--------------|----------------|----------------|
[palm mute                 ]

|E/D D          | E/D  D   A/D   |E/D D          | E/D  D   E/D   |
|4---2----------|--4---2---5-----|4---2----------|--4---2---4-----|
|5---3----------|--5---3---5-----|5---3----------|--5---3---5-----|
|4---2----------|--4---2---6-----|4---2----------|--4---2---4-----|
|0-0-0-0-0-0-0-0|0-0-0-0-0-0-0-0-|0-0-0-0-0-0-0-0|0-0-0-0-0-0-0-0-|
|---------------|----------------|---------------|----------------|
|---------------|----------------|---------------|----------------|

|F#/D Bb/D      | F#/D Bb/D F#/D |G/D  |      |
|6---6----------|--6---6---6-----|7----|------|
|7---6----------|--7---6---7-----|8----|------|
|6---7----------|--6---7---6-----|7----|------|
|0-0-0-0-0-0-0-0|0-0-0-0-0-0-0-0-|0-0--|------|
|---------------|----------------|-----|------|
|---------------|----------------|-----|------|

|G     Gsu4 |G    Gsus4 |F   Fadd#4 |F/D         |E/D  Esus4/D|E/D|
|7-----8----|7-----8----|5-----7----|5-----------|4-----5-----|4--|
|--8-----8--|--8-----8--|--6-----6--|------------|--5-----5---|---|
|----7-----7|----7-----7|----5-----5|------------|----4-----4-|---|
|-----------|-----------|-----------|-0-0-0-0-0-0|------------|---|
|-----------|-----------|-----------|------------|------------|---|
|-----------|-----------|-----------|------------|------------|---|
                                                [vol down]

["Driving Four" - 12:44]

|(E)
|-------------------|-----|---------------------|
|-------------------|-----|---------------------|
|-------------------|-----|---------------------|
|----------5--------|-----|---------------------|
|7-7-7-5-7----------|-----|7-7-7-7-5------------|
|-------------------|-----|----------7--1-------|
[palm mute                                    

|------------|-----|--------------|-----------|
|------------|-----|--------------|-----------|
|------------|-----|--------------|-----------|
|----------5-|-----|--------------|-----------|
|7-7-7-5-7---|-----|7-7-7-7-5-----|-----------|
|------------|-----|----------7-3-|-----------|
                                 ]
                                            hey!
|------------|--------------|----------|-----------|
|------------|--------------|----------|-----------|
|------------|--------------|----------|-----------|
|----------5-|--------------|----------|-----------|
|7-7-7-5-7---|7-7-7-7-5-----|7-7-7-7-5-|-----------|
|------------|----------7-3-|----------|-----------|
[vol up; pedal on]                      [drum count in]

|------------|--------------|------------|-----------|
|------------|--------------|------------|-----------|
|------------|--------------|------------|-----------|
|----------5-|--------------|----------5-|-----------|
|7-7-7-5-7---|7-7-7-7-5-----|7-7-7-5-7---|--7\-------|
|------------|----------7-3-|------------|-----------|

|------------|--------------|------------|-----------|
|------------|--------------|------------|12--12-----|
|------------|--------------|------------|12^-12^----|
|----------5-|--------------|----------5-|-----------|
|7-7-7-5-7---|7-7-7-7-5-----|7-7-7-5-7---|-----------|
|------------|----------7-3-|------------|--------14\|

|------------|--------------|------------|-----------|
|------------|--------------|------------|-----------|
|------------|--------------|------------|-----------|
|----------5-|--------------|----------5-|------0----|
|7-7-7-5-7---|7-7-7-7-5-----|7-7-7-5-7---|------0----|
|------------|----------7-3-|------------|7\-0--0----|
                                                [switch to neck pickup]

|------------|--------------|------------|--------12------|
|------------|--------------|------------|----------15-12-|
|------------|--------------|------------|12^-12^---------|
|----------5-|--------------|------------|----------------|
|7-7-7-5-7---|7-7-7-7-5-----|7-7-7-5-----|----------------|
|------------|----------7-3-|---------0--|----------------|

|12-12-12-12--------|12-12-12-12-----------|------------|12---------15^|
|------------15-12-0|------------15-12-----|12----------|--15-12--12---|
|-----------------14|-----------------12-14|--14-12-----|-------14-----|
|-------------------|----------------------|-------12-14|--------------|
|-------------------|----------------------|------------|--------------|
|-------------------|----------------------|------------|--------------|

|15-12---17p15--17p15--|17p15--17p15--15p12--|---------------------|
|-----15------17-----17|-----17-----17-----12|---------------------|
|----------------------|---------------------|14-12--------12------|
|----------------------|---------------------|-----14-12-14--14-12-|
|----------------------|---------------------|---------------------|
|----------------------|---------------------|---------------------|

|--------------|------------|--------------|------------|-------------|
|--------------|------------|--------------|------------|-------------|
|14^-12~-------|------------|--------------|------------|-------------|
|-------12-----|----------5-|--------------|----------5-|-------------|
|--------------|7-7-7-5-7---|7-7-7-7-5-----|7-7-7-5-7---|7-5----------|
|----------12\-|------------|----------7-3-|------------|---7-5-3^~-0-|

|------------|--------------|------------|--------------|
|------------|--------------|------------|--------------|
|------------|--------------|------------|--------------|
|----------5-|--------------|----------5-|0-------------|
|7-7-7-5-7---|7-7-7-7-5-----|7-7-7-5-7---|--------------|
|------------|----------7-3-|------------|--------------|

|--------------|---------------|--------------|-------------|
|--------------|---------------|--------------|-------------|
|--------------|---------------|--------------|-------------|
|--------------|-------7-5-7/9-|--------------|-------------|
|--------7-5---|---------------|--------7-5---|-------------|
|0-0-0-0-----7-|0-0-0-0--------|0-0-0-0-----7-|3~-----------|

[outro - 13:49]

|E5       |E5        |E                                               |
|---------|----------|-----------12-----------------------------------|
|---------|----------|-------------15-12-15-12------------------------|
|---------|----------|-------14^--------------14-12-------------------|
|2--------|2---------|-----------------------------14-12-h14p12h14p12h|
|2--------|2---------|2-----------------------------------------------|
|0--------|0---------|0-----------------------------------------------|

|---------------------------------------------------------------------|
|--------------------------------------0~x/~x/~x/~x/~x/--~x/~x/~x/----|
|--------------------------------------0~x/~x/~x/~x/~x/--~x/~x/~x/----|
|14p12----2---x/x/x/x/x--2----2--------0~x/~x/~x/~x/~x/--~x/~x/~x/----|
|---------2---x/x/x/x/x--2----2--------0~x/~x/~x/~x/~x/--~x/~x/~x/----|
|-----12\-0---x/x/x/x/x--0----0---------------------------------------|
             [toggle pickup selector] [toggle and shake guitar]

|          D       E         Em9       Em9                 E          |
|----------2-----------------3---------3------------0/0/0-------------|
|~x/~x/~x/-3-----------------3---------3------------------------------|
|~x/~x/~x/-2-----------------2---------2---------[feedback]-----------|
|~x/~x/~x/-0-------2---------2---------2------------------------------|
|~x/~x/~x/-0-------2---------2---------2-0----------------------------|
|------------------0---------0---------0-0---5/12/\--------0-----0----|
                                            [swing gtr around by neck]
                                            [Note: Do NOT try this] 
[14:41]

=============
litgo@aol.com
  development and support by
dmitry ivanov