rock
 
|tablatures   |lyrics   |discussion forums   |more tabs @ XGuitar.com

The_who tabs

Kill My Appetite guitar tab

Kill My Appetite
By Pete Townshend, 1965
>Unreleased
Written by Pete Townshend

==============
transcribed by
litgo@aol.com
==============

[intro]
|G riff        |C riff        |x2
|--------------|--------------|
|--------------|--------------|
|--------------|--------------|
|--------------|-----5------5-|
|-----5------5-|3-5/7--3-5/7--|
|3-5/7--3-5/7--|--------------|

G riff               C riff
I'm drinking lots of hot coffee, baby
G riff              C riff 
I'm chewing lots of nut toffee, baby
 A riff                   D riff
 I'm    thinking things I should not be, baby
|------------------------|---------------|
|------------------------|---------------|
|------------------------|---------------|
|------------------------|-----7--------7|
|-----7--------7---------|5-7/9--5---7/9-|
|5-7/9--5---7/9----------|---------------|

A riff                D riff
I'm doing things that always get me to stay

C        G         C           G
Awake at night, to keep you in sight, 'cause
C        G     C    G        A           D  C D   A        D    C D
You just might be alright to kill my appetite, to kill my appetite

|D   C D   D   C D|D   C D   D    C D|
|-----------------|------------------|
|7-7-5-7---7-7-5-7|------------------|
|7-7-5-7---7-7-5-7|-------%----------|
|7-7-5-7---7-7-5-7|------------------|
|5-5---5---5-5---5|------------------|
|-----------------|------------------|

I'll take you with some salt and pepper, baby
I'll wake you and I'll feel better, baby
I'm hungry for your flavor, baby
Put some sauce on you, it may be gravy, then you'll

Be just right, to be my delight
So baby, tonight, I thought you might
Kill my appetite, kill my appetite, kill my appetite, kill my appetite

To kill my appetite, to kill my appetite
To kill my appetite, to kill my appetite

I'll take you with some salt and pepper, baby
I'll wake you and I'll feel better, baby
I'm chewing lots of nut toffee, yes and
I'm drinking lots of hot coffee, baby

To stay awake at night, to keep in sight
'Cause you just might be alright 
To kill my appetite
To kill my appetite
To kill my appetite
To kill my appetite

=============
litgo@aol.com
  development and support by
dmitry ivanov