rock
 
|tablatures   |lyrics   |discussion forums   |more tabs @ XGuitar.com

The_who tabs

I've Had Enough guitar tab

I've Had Enough 
by The Who
>From Quadrophenia, 1973 
Written by Pete Townshend

Originally transcribed by Kenny Sahr
=============
revised by
litgo@aol.com
=============

Note: all leads are approximate.

G/D    xx0433                F6     xx3231
A/D    xx0655                Dm6    xx0201
Bb/D   xx0766                Amsus4 x02230
Bbii/D xx0331                F6maj7 xx3230
C/D    xx0988 and xx0553     Dsus2  xx0320
Bm/C   xx0777 and xx0432     A7     x02223
G      3x0033                A7/E   xx2223
D      xx0232                D/A    x00232
A5     x02255                


[intro; pedal D throughout]

|G/D     |        |A/D     |        |Bb/D    |Bbii/D  |
|3-------|--------|5-------|--------|6-------|1-------|
|3-------|--------|5-------|--------|6-------|3-------|
|4-------|--------|6-------|--------|7-------|3-------|
|00000000|00000000|00000000|00000000|00000000|00000000|
|--------|--------|--------|--------|--------|--------|
|--------|--------|--------|--------|--------|--------|

|C/D     |    Bm/C|C/D     |        |
|3-------|-------2|3-------|----3333|
|5-------|-------3|5-------|---55555|
|5-------|-------4|5-------|--555555|
|00000000|00000000|00000000|00000000|
|--------|--------|--------|--------|
|--------|--------|--------|--------|

|G/D     |           |A/D          |                     |Bbii/D    
 You were under the impression that when you were walking forwards
          |                |C/D    
That you'd end up further onward, 
   |                       |G  D  |A5    G D|A5  |
But things ain't quite that simple

You got altered information, you were told to not take chances 
You missed out on new dances, now you're losing all your dimples

| A        A A      A A   A|G D  A/| A   A A    A A   A|G D   A/|
|-9---9~---12-10-9h10p9-9--|-------|----5--------------|--------|
|-10--10~----------------10|-------|-----8-7-5---------|--------|
|--------------------------|9-9-6--|4/6~------6--------|--------|
|--------------------------|-------|-----------7-------|-5h6-7-5|
|--------------------------|-------|---------------5h6-|7-------|
|--------------------------|-------|-------------------|--------|

  |A           A A/G A   A       |G           D   |
My jacket's gonna be cut slim and checked, maybe a 
  |------------------------------|----------------|
  |------------------------------|----------------|
  |------------------------------|7^-7^-7^-7^-5---|
  |7-----------------------------|----------------|
  |------------------------------|----------------|
  |------------------------------|----------------|

|A        A   A/G A          A   |G       D     |
 Touch of seersucker with an open neck, I ride a
|--------------------------------|--------------|
|--------------------------------|--------------|
|-5------------------------------|--------------|
|----5-----7~--------------------|--------------|
|-----------------0----------3\--|-0------------|
|--------------------------------|--------------|

|A  A/G A           A       |G        D      |
 GS Scooter with my hair cut neat, I wear my 
|---------------------------|----------------|
|---------------------------|----------------|
|4^(6)/\---/\---------------|-4^\-----2------|
|---------------------------|----------------|
|---------------------------|----------------|
|---------------------------|----------------|

|A       A/G  A      A       |        |
 Wartime coat in the wind and sleet
|----------------------------|--------|
|----------------------------|--------|
|2---------------------------|--------|
|----------------------------|--------|
|----------------------------|--------|
|----------------------------|--------|

[6/8]
|Amsus4 |   |   |   |Amsus4  |   |   |   |
|-------|
|-------|
|2------|
|2------|
|0------|
|-------|

|Amsus4|   |   |      Amsus4(G)|F6maj7|     |Dsus2   |    |
 Love,          reign o'er      me,  rain on me 

|Amsus4|   |   |      Amsus4(G)|F6maj7|     |Dsus2   |    |
 Love,           rain on        me,                 

[4/4]
|Dsus4 |    |   |   |D  D/A |D  D/A  |D  D/A   |D  D/A |
 Love.................

    |D    D/A     |D    D/A    |D    D/A     |A7   A7/E
I've had enough of livin', I've had enough of dyin'
|A7   A7/E    |A7    A7/E|A7   A7/E    |D     D/A |
 Had enough of smilin',   had enough of crying

    |D     D/A    |D        D/A    |D          D/A     |A7   A7/E  
I've taken all the high roads, I've squandered and I've saved
    |A7   A7/E    |A7      A7/E    |A7   A7/E    |D    D/A  |
I've had enough of childhood,  I've had enough of graves

|Dsus4  |Dsus4 |D D/A|D   D/A |

I've had enough of livin', I've had enough of dyin'
I've had enough of smilin', I've had enough of crying
I've taken all the high roads, I've squandered and I've saved
I've had enough of childhood, I've had enough of graves

|G/D     |A/D     |Bb/D    |C/D     |C/D     |C/D     |C/D     |
(graves)                                                       |
|3-------|5-------|6-------|8-------|8-------|8-------|8-------|
|3-------|5-------|6-------|8-------|8-------|8-------|8-------|
|4-------|6-------|7-------|9-------|9-------|9-------|9-------|
|00000000|00000000|00000000|00000000|00000000|00000000|00000000|
|--------|--------|--------|--------|--------|--------|--------|
|--------|--------|--------|--------|--------|--------|--------|

[repeat verse]
Get a job and fight to keep it, strike out to reach a mountain 
Be so nice on the outside, but inside keep ambition

|G  D       A|A           |G       D      A|A
(bi-tion)
|7\----------|------------|--3-------2-----|-----|
|8\----------|--2--2--2---|--3-------3-----|-----|
|7\----------|2-4^-4^-4-2-|--0-------2-----|2----|
|---0-0------|------------|----------------|2----|
|------------|------------|0-------0------0|0--5\|
|------------|------------|----------------|-----|

Don't cry because you hunt them, hurt them first, they'll love you
There's a millionaire above you and you're under his suspicion 

|G  D       A|A           |G         D     A|A       |
(picion)                                              
|------------|------------|--12------12-----|9~------|
|------------|---------10h|12---10h12---7/10|----12^\|
|0------2----|2-----------|-----------------|--------|
|0--0-4------|2-----------|-----------------|--------|
|------------|0-----------|-----------------|--------|
|------------|------------|-----------------|--------|

| A     A  A     A   A     A|G  D   |
|---------------------------|-------|
|-10-10/10-10/10-10/10-10/10|10-10--|
|---------------------------|-------|
|---------------------------|-------|
|---------------------------|-------|
|---------------------------|-------|

| A   A A    A A                    A|G  D   A/|
|10/12-12-12-10-10-9h10p9------------|---------|
|------------------------10----------|---------|
|---------------------------7-9-7--6/|4--2h4p2-|
|------------------------------------|---------|
|------------------------------------|---------|
|------------------------------------|---------|

  |A           A A/G A   A       |G           D   |
My jacket's gonna be cut slim and checked, maybe a 
  |------------------------------|----------------|
  |------------------------------|----------------|
  |-4^\-2-4^\-4^--\------2-------|---------------2|
  |------------------------------|---------------2|
  |------------------------------|---------------0|
  |------------------------------|----------------|

|A            A/G A          A   |G       D     |
 Touch of seersucker with an open neck, I ride a
|--------------------------------|--------------|
|--------------------------------|--------------|
|2-------------------------------|--------------|
|2-------------------------------|--------------|
|0-------------------------------|--------------|
|--------------------------------|--------------|

|A  A/G A           A       |G        D      |
 GS Scooter with my hair cut neat, I wear my 
|17/17-17--------17\--------|----------------|
|14/14-14--------14\--------|----------------|
|14/14-14--------14\--------|---------------2|
|-------------------------2/|2-5\2--5\2-----2|
|-------------------------0/|0-0------0-----0|
|---------------------------|----------------|

|A       A/G  A      A       |A       |
 Wartime coat in the wind and sleet
|----------------------------|--------|
|----------------------------|--------|
|2------4^--2--------2-------|--------|
|2-------------------2-------|--------|
|0-------------------0-------|--------|
|----------------------------|--------|

Love, rain on me, rain o'er me 
Love, reign o'er me, Love.................

I've had enough of dancehalls, I've had enough of pills
I've had enough of streetfights, I've seen my share of kills 
I'm finished with the fashions and actin' like I'm tough 
                                                             |G G G G
I'm bored with hate and passion, I've had enough of trying to love

=============
litgo@aol.com
  development and support by
dmitry ivanov