rock
 
|tablatures   |lyrics   |discussion forums   |more tabs @ XGuitar.com

The_who tabs

It's Hard guitar tab

It's Hard
By the Who
>From It's Hard, 1982
Written by Pete Townshend 1982 Towser Tunes Inc./Eel Pie Publishing Ltd.

==============
transcribed by
litgo@aol.com
==============

[optional chord voicings]
A/G    x00233
C/E    x7555x
Dm/C   x3x231
Bbmaj7 xx3231
Cm/Eb  x6554x
Bsus4  799870
A      577650


[intro]
| Dm   | Dm    | Dm/C        | Dm/C    | Bbmaj7   | Dsus4 D   |
|------|-------|-------------|---------|----------|-----------|
|------|---5-6-|-6/8--6-5----|---------|----------|-----------|
|-7----|-7-----|----------7--|---------|----------|-----------|
|------|-------|-------------|---0-2-3-|/5-5/7----|-5-4-------|
|------|-------|-------------|---------|-------5--|-----------|
|------|-------|-------------|---------|----------|-----------|

| G/F      G/F      | C/E            | Cm/Eb     |          |
|-------------------|-------------8--|-11--------|----------|
|--------8----------|--5-------------|-----8-----|----------|
|---4-7-------------|----5-----/9----|-------8---|-5--7-7---|
|-5-----------------|----------------|-----------|----------|
|-------------------|----------------|-----------|----------|
|-------------------|----------------|-----------|----------|

| Dsus4   | D              |
|---------|----------------|
|---------|----------------|
|------7/9|-7--------------|
|-7-------|----------------|
|---------|----------------|
|---------|----------------|



||(G)  G        (G)  G |(C)       (D)  D  ||
   Any tough can fight,    few can play
Any fool can fall, few can lay
Any stud can reproduce, few can please
Anyone can pay, few can lease

[chorus]
||   D        |G    D    G/A  A   |D    ||
It's hard it's very very very very hard
It's very very very very hard
So very hard

Any man can claim, few can find
Any girl can blink, few can lie
Any one can promise, few can raise
Anyone can try but a few can stay

[chorus]

 hard             so     hard...
| Dm       | Dm        | Dm/C       | Dm/C    | Bbmaj7    | Dsus4 D   |
|----------|-----------|------------|---------|-----------|-----------|
|----------|-----------|------------|---------|-6------10-|-10----10--|
|-7--------|-----------|------------|----7-7--|-----------|---/11-----|
|------7---|-0--0-2-3--|-5----3-2-3-|-5-------|-----------|-----------|
|------(12)|-----------|------------|---------|-----------|-----------|
|----------|-----------|------------|---------|-----------|-----------|

| G/F       G/F     | C/E            | Cm/Eb           |               |
|-----10---------10-|-/12-----8----8-|-11-8------------|-----------10--|
|-/12---------------|-----------8----|------8----13/11-|-11/15/16----13|
|-------------------|----------------|--------8--------|---------------|
|-------------------|----------------|-----------------|---------------|
|-------------------|----------------|-----------------|---------------|
|-------------------|----------------|-----------------|---------------|

| Dsus4   | D              |
|---------|----------------|
|-10----8-|-7-5-7----------|
|---------|----------------|
|---------|----------------|
|---------|----------------|
|---------|----------------|

| E   E   | A      Bsus| E   E   | A       Bsus4|
|-7-5-4-2-|-0--2/4-2---|-7-5-4-2-|-2/4-2/4-2--|
|-9-7-5-4-|-2--2---4---|-9-7-5-4-|-2---2---4--|
|---------|------------|---------|------------|
|---------|------------|---------|------------|
|---------|------------|---------|------------|
|---------|------------|---------|------------|

| E     E   | A     Bsus E     E   | A       Bsus4|
|-0--0--0-0-|-0-0---0--|-0--0--0-0-|-0---0---0-|
|-12-10-9-7-|-5-7/9-7--|-12-10-9-7-|-7/9-7/9-7-|
|-13-11-9-8-|-6-8/9-8--|-13-11-9-8-|-8/9-8/9-8-|
|-----------|----------|-----------|-----------|
|-----------|----------|-----------|-----------|
|-----------|----------|-----------|-----------|

| E     E       | A      Bsus| E     E | A     Bsus4|
|-0--0--0--0--0-|-0--0---0-0-|-0-0-0-0-|---0---0-0--|
|-12-12-12-10-9-|-10-7/9-7-9-|-9-7-5-5-|-2-----7-7--|
|-13-13-13-11-9-|-11-8/9-8-9-|-9-8-6-4-|-2-----8-8--|-(12)
|---------------|------------|---------|------------|
|---------------|------------|---------|------------|
|---------------|------------|---------|------------|


Any brain can hide, few can stand
Any kid can fly, a few can land
Any gang can scatter, few can form
Any kid can chatter, few can inform

[chorus]

Any soul can sleep, few can die
Any wimp can weep, a few can cry
Everyone complains, few can state
Anyone can stop, few can wait

[chorus]
||D             D               |G    D         A     |
  Anyone can do anything if they hold the right card 

       D                 D       | G    A           |D     | G D G/A A ||
So I'm thinkin' about my life now, I'm thinkin' very hard

Deal me another hand, Lord, this one's very hard
So deal me another hand, Lord, this one's very very hard

So hard...

=============
litgo@aol.com


  development and support by
dmitry ivanov