rock
 
|tablatures   |lyrics   |discussion forums   |more tabs @ XGuitar.com

The_who tabs

Happy Jack bass tab

Happy Jack Bass Tab by The Who,
Happy Jack by Pete Townshend
Bass by John Entwistle
Tabbed by Jose Nieto JMN357@aol.com - First Tab
Intro:
G-----------------0---4-----------------
D---0---2---4--------------4---2---0-
A----------------------------------------
E----------------------------------------
Verse:
G-------------------
D-----0----0-----0-2
A---0-----0----0----
E-------------------

Pre- Chorus
G------------------------------
D------------------------------
A---045-045-045-045-045-045-045
E------------------------------

Chorus w/ lyrics
G--0--------0-----
D-----------------
A-----0---------0-
E-----------------

Chorus con\\'t (part without lyrics)

G-----------------------
D-----------------------
A---0--45454545----0---5 (gradual fall 1st time)
E-----------------------

Chorus con\\'t 2

G---------
D--------0
A-----00--
E--3333---
and then
G-----------------------
D-----------------------
A--00---00---00---00---0
E-----------------------

Here\\'s how it goes:
Intro
Verse
Intro
Verse
Pre-Chorus
Chorus w/ lyrics
Verse
Chorus con\\'t
Verse
Chorus con\\'t
Chorus con\\'t 2
Chorus w/ lyrics
Verse
Intro
  development and support by
dmitry ivanov