rock
 
|tablatures   |lyrics   |discussion forums   |more tabs @ XGuitar.com

The_who tabs

Goin' Down guitar tab

Goin' Down
As performed by The Who
>Appears on Two's Missing
Written by William D. Nix ŠIrving Music Inc.
Arranged by Freddie King, 1971

==============
transcribed by
litgo@aol.com
==============

|-------------------|
|-------------------|
|-------------------|
|-------------------|
|-------------------|
|0-----\-/----------|
       push forward
       on headstock
       and back on 
       body of guitar

[main pattern]
Goin' down       Goin' down down down down down       
|---||--------|-------|-------------------|--------|----------||
|---||--------|-------|-------------------|--------|----------||
|---||.-------|-------|9----7-------------|--------|----5----.||
|---||.-------|-------|----------9----7---|--------|----2----.||
|---||--------|-------|7----5-------------|2-2-2-2-|----2-----||
|0-0||0-0-0-0-|0-x-x-x|----------7----5---|0-0-0-0-|0-x-0-x-x-||

[repeat with variations]
I'm goin' down, down, down, down, down, down
I got my big feet in the window, my head's on the ground

=============
litgo@aol.com

  development and support by
dmitry ivanov