rock
 
|tablatures   |lyrics   |discussion forums   |more tabs @ XGuitar.com

The_who tabs

Give Blood guitar tab

Give Blood
By Pete Townshend
>From White City, 1985
Written by Pete Townshend 1985 Eel Pie Publishing Ltd./Towser Tunes Inc.

==============
transcribed by
litgo@aol.com
==============

Capo on 3

Eb     x67343
Cm     x35543 and x35588
Cm7    8 10 10 8 8 8
Ab     46654x
Fsus2  xx3563
C      x35588
F/C    x37563

[fade in]
|Cm  | |   |....

     Eb |F   |     Eb |Cm    [drums in]

                  8
|| Cm7           ||
||-6--6--6--6----||[use delay; repeat throughout intro and verse]
||--4--4--4--4---||
||.--5--5--5--5-.||
||.-------------.||
||---------------||
||---------------||


    |Cm7   |                             |Ab           |      |
Give blood, but you my find that blood is not enough
Give blood, and there are some who'll say it's not enough
Give blood, but don't expect to ever see reward
Give blood, you can give it all but still you'll be asked for more

|G        |Ab       |Eb       |Fsus2    |
|---11-10-|---11-10-|---11-10-|---------|
|---------|---------|---------|8--------|
|---------|---------|---------|---------|
|---------|---------|---------|---------|
|---------|---------|---------|---------|
|---------|---------|---------|---------|

|G        |Ab       |Eb       |Fsus2   |
|---11-10-|---11-10-|---11-10-|--------|
|---------|---------|---------|6-------|
|---------|---------|---------|--------|
|---------|---------|---------|--------|
|---------|---------|---------|--------|
|---------|---------|---------|--------|

|      G |       Ab | Eb      |       Fsus2 |

Give blood, but it could cost more than your dignity
Give blood, parade your pallor in iniquity
Give blood, they will cry and say they're in your debt
Give blood, but then they'll sigh and they will soon forget

                                   2
||:G      |Ab     |Eb     |Fsus2  :||
||---11---|---11--|---11--|---11---||
||--------|-------|-------|--------||
||.-------|-------|-------|-------.||
||.-------|-------|-------|-------.||
||--------|-------|-------|--------||
||--------|-------|-------|--------||

[spoken]
We're heading for the day of reckoning, I'm tellin' ya
It's all building up to something
Something that can only be repeated with fire

[chorus]
       |C   |                      |F/C     |       |
So give love and keep blood between brothers
So give love and keep blood between brothers

[synth solo, arr for gtr]
| F   |     | Eb  |     | C#  |     | Bb  |     |
|-3-4-|-6-4-|-3-4-|-6-4-|-3-4-|-6-4-|-3-4-|-6-4-|

| F     |       | Eb    |       | C#    |       | Bb    |       |
|-15-16-|-18-16-|-15-16-|-18-16-|-15-16-|-18-16-|-15-16-|-18-16-|

[repeat first verse]
[repeat chorus and fade]

=============
litgo@aol.com


  development and support by
dmitry ivanov