rock
 
|tablatures   |lyrics   |discussion forums   |more tabs @ XGuitar.com

The_who tabs

Gettin' In Tune guitar tab

Song: Gettin In Tune
Artist: The Who
Transcribed by: Jake Siegel

Here are a couple of the riffs Townshend plays...I dont have everything, but I'm working on it...

Intro (Under Piano):
|-----------------------------------------------------------------|
|-----------------------------------------------------------------|
|------2----------------------------------------------------------|
|--3-5----3-5-3---------------------------------------------------|
|----------------3-5-3--------------------------------------------|
|-----------------------5-6-5--1-3-1--6---------------------------|

Second Verse:
|-----------------6-5---------------------------------------------|
|----------------------6------------------------------------------|
|------------------------5-----3--/5---------3--/5----------------|
|----------------------------7-----------7------------------------|
|-----------------------------------------------------------------|
|-----------------------------------------------------------------|
"I get little...here often?"

Third Verse:
|-------------------9-9-9-9-9p-8-----------------------------------|
|-----------------------------------------------------------------|
|missing----------------------------------------------------------|
|-----------------------------------------------------------------|
|-----------------------------------------------------------------|
|-----------------------------------------------------------------|
    "...my heart a-reelin..."
  development and support by
dmitry ivanov