rock
 
|tablatures   |lyrics   |discussion forums   |more tabs @ XGuitar.com

The_who tabs

Gettin' In Tune bass tab

Who - Getting In Tune
Submitted By: KennyBorders
EMail: Spankielnc@aol.com


00:07
|10-12-14-10h12p10-------------------|--------------|
|------------------10h12p10----------|--------------|
|-------------------------------12h13|13------------|
|------------------------------------|----13h15p13\6|

|-------|--------|--------|--------|--------|---------|
|-------|--------|--------|------10|--------|---------|
|-------|-------3|--------|--------|8-------|--------3|
|1------|--------|1-------|--------|-----(8)|6--------|

|--------|--------|
|3-------|--------|
|--------|--------|
|--------|--------|

00:43 (The band kicks in)
|-----|-----|-----------|----------|-----------------|
|-----|-----|----6------|----8----8|----3-----1-3---3|
|-----|-----|--6--------|------10--|--3-----3-----3--|
|1-1-1|1-1-1|4-----4-6-6|1-1-------|1-----1----------|

|-----------------|-------10-------------10-----|-------------------|
|-----------------|--10--------10---(10)------10|--(8)-8-8-----8----|
|-----------------|8----8----8----8---------8---|------------8---8-8|
|6-6-6-6-6-6-6-5-3|-----------------------------|6---------6--------|

|-------------------------|-------------------|----------------------|
|--3-3-3-3----------------|--8---8-----8-8-(7)|--3-3-(3)-------3----3|
|----------3-3-3-3--------|----8---8----------|8---------3---3----3--|
|1-----------------1-1-1-1|6---------1--------|------------1-----1---|

|-------|-----|-----|-----------|-----|
|-------|-----|-----|--6--------|-----|
|3-3----|-----|-----|----6------|----8|
|----3-1|1-1-1|1-1-1|4-----4-6-6|1-1--|

|----------------------|-----------------|---|---|--7-5------|
|--------12-12-------12|--8-8-8-----8----|---|---|------7-5--|
|10-13-13---------12---|6-------6-6---6-8|---|3-3|3---------7|
|--------------10------|-----------------|6-8|---|-----------|

|--7-5------|--7-5------|--7-5------|--7-5------|--7-5------|
|------7-5--|------7-5--|------7-5--|------7-5--|------7-5--|
|3---------7|3---------7|3---------7|3---------7|3---------7|
|-----------|-----------|-----------|-----------|-----------|

|--7-5------|
|------7-5--|
|3---------7|
|-----------|

02:12
|---/12-------------------------|---12-12------------------------------|
|-------10h12-----10-10-9-------|---------10h12---------10---10-9------|
|10------------10--------12-(11)|10-------------10----3-----------12h11|
|-------------8-----------------|------------------10\-----8-----------|

|---------12----------12----12----|----5-5--5-5-3|
|---12----------12----------------|--------------|
|10----10----10----10----10----10\|3-3-----3-----|
|---------------------------------|--------------|

|---12----------12------------------|-------------------|
|------10-12-------10-12-------12---|---12-11-10--------|
|10----------10----------10-10----12|------------12-----|
|-----------------------------------|10-------------(10)|
  development and support by
dmitry ivanov