rock
 
|tablatures   |lyrics   |discussion forums   |more tabs @ XGuitar.com

The_who tabs

Fiddle About bass tab

#----------------------------------PLEASE NOTE---------------------------------#
#This file is the author's own work and represents their interpretation of the #
#song. You may only use this file for private study, scholarship, or research. #
#------------------------------------------------------------------------------##

-------------------------------------------------------------------------------
			     Fiddle About - The Who
-------------------------------------------------------------------------------

Tabbed By : someguy_175
e-mail: someguy_175@hotmail.com

From "Tommy" The Rock Opera

Tuning:EADG

G|----------------------------------------|
D|--5-3---3-5-3------3---5---3---5--3--5--|
A|------6-------6-------------------------|
E|----------------------------------------|

G|-----------------------------------------|
D|--5---5---5---------3---5---3---5--3--5--|
A|----5-------3-6--------------------------|
E|-----------------------------------------|

G|-----------------------------------------|
D|--5---5---5---------3---5---3---5--3--5--|
A|----5-------3-6--------------------------|
E|-----------------------------------------|

G|----------------------------------------|
D|--5-4-3------------3---5---3---5--3--5--|
A|----------3-4-5-------------------------|
E|--------6-------------------------------|

G|----------------------------------------|
D|--5-3---3-5-3------3---5---3---5--3--5--|
A|------6-------6-------------------------|
E|----------------------------------------|


G|----------------------------------------|
D|--5-3---3-5-3------3---5---3---5--3--5--|
A|------6-------6-------------------------|
E|----------------------------------------|

G|-------------------------------------------------------|
D|--3---5---3---5--3--5---3-3-3-3-5--3-3-3-3-5--3-3-5----|
A|-------------------------------------------------------|
E|----------------------3-----------------------------3--|

G|-------------------------------------------------------------------|
D|--3-3-3-3-5--3-3-3-3-5--3-3-5----3-3-3-3-52-3-3-3-3-52-3-3-3-3-52--|
A|-------------------------------------------------------------------|
E|------------------------------3------------------------------------|

G|----------------------------------------------------------------------|
D|--3-3-3-3-52-3-3-3-3-52--3-3-3-3-52-3-3-3-3-52-3-3-3-3-52-3-3-3-3-52--|
A|----------------------------------------------------------------------|
E|----------------------------------------------------------------------|

G|---------------------------------------|
D|--3-3-3-3-52-3-3-3-3-52-3-3-3-3-52-3~--|
A|---------------------------------------|
E|---------------------------------------|


| /  slide up
| \  slide down
| h  hammer-on
| p  pull-off
| ~  vibrato
| +  harmonic
| x  Mute note
===============================================================================
  development and support by
dmitry ivanov