rock
 
|tablatures   |lyrics   |discussion forums   |more tabs @ XGuitar.com

The_who tabs

Don't Look Away guitar tab

Don't Look Away
By The Who
>From A Quick One, 1966
Written by Pete Townshend

==============
transcribed by
litgo@aol.com
==============


|| A / / / | G / / / D||

A            G
Don't go and hide
      A       G       A
Yesterday you were my girlfiend
       A       G       
If you do my inside goes 
 A          G          A
Around and around in a whirlwind
          D
There's a stone in my shoe
So I can't catch you up
   D
My head's in a lion's mouth
Wants to eat me up
A
Right here today
F#m
Don't look away
     Bm           
I've always been true
      G
And I still love you
   Bm      
So don't look away
          G
There's a lot you can do
   A
To get me away
F#m   
You've got to stay
E                   D
Don't look away
E                   E
Don't look away

I once heard you say
If I ever was down you would help me
Now my head's being chewed up
You try to pretend that you don't see

There's a stone in my shoe
So I can't catch you up
My head's in a lion's mouth
Wants to eat me up

Right here today
Don't look away
I've always been true
And I still love you
So don't look away
There's a lot you can do
To get me away
You've got to stay

Don't look away
Don't look away

   A       G            A       G       A
||-5--5--5-5-5-5-----|--5--5--5-5-5-0-|-0-------||
||-------------------|----------------|---2-----||
||-7^-7\-6-7-6-7-----|--7^-7\-6-7-6-2^|-2-------||
||-------------------|----------------|---2-----||
||-------------------|----------------|---------||
||-------------------|----------------|---------||

   D                      
||----10-7--------------|--------------------|--------||
||---------10-7---------|-10-------------7-8-|-10-7-8-||
||-9^-----------7-9^----|--9^--7---------7-7-|--7-7-7-||
||----------------------|--------9/7-----9-9-|-10-7-9-||
||----------------------|------------9-------|--------||
||----------------------|--------------------|--------||

  A/C#                F#m                   Bm....
|-------------------|---------------------|-------
|-------------------|---------------------|-------
|--------------2-4^-|-4^-4/2---2/4-4^-4/2-|-------
|-2--2-4/2---4------|--------4------------|-4-----
|-------------------|---------------------|-------
|-------------------|---------------------|-------

     Bm....
I've always been true
And I still love you
So don't look away
There's a lot you can do
To get me away
You've got to stay

E              D
Don't look away
E              D
Don't look away...

=============
litgo@aol.com
  development and support by
dmitry ivanov