rock
 
|tablatures   |lyrics   |discussion forums   |more tabs @ XGuitar.com

The_who tabs

Dogs Part Two guitar tab

Dogs Part Two
By The Who, 1968
Originally released as the b-side of Pinball Wizard, 1969
>Appears on Two's Missing, 1987
Written by Keith Moon, Towser, Jason

==============
transcribed by
litgo@aol.com
==============

Note: patterns, timing and leads are approximate


[drum intro]
|      |       |      |      |

|12/12/12/12/12/12-12-12--12|12/12/12/12-12-------------|
|9-/9-/9-/9-/9-/9--9--10--10|9-/9-/9-/9--9--0-/12-12-9--|
|9-----9--------9--9--9---9-|9-/9-/9-/9--9--0--9--9--9--|
|9-----9--------9--9--11--11|9-/9-/9-/9--9--0-/12-12-9--|
|---------------------------|---------------------------|
|---------------------------|---------------------------|

|12/12/12/12/12/12-12--12--12|12---12---12---12---12----|
|9-/9-/9-/9-/9-/9--9---10--10|9h10-9h10-9h10-9h10-10-9--|
|9-/9-----9-----9--9---9---9-|9----9----9----9----9--9--|
|9-/9-----9-----9--9---11--11|9h11-9h11-9h11-9h11-11-9--|
|----------------------------|--------------------------|
|----------------------------|--------------------------|

|------0-/0-/0-/0-/0--0---0--0--|------0-/0-/0-/0-/0--0---0--0----|
|10/12-12/12/12/12/12-12--10-10-|10/12-12/12/12/12/12-12--10-10-9-|
|9--9--9-/9-/9-/9-/9--9---9--9--|9-----9-/9-/9-/9-/9--9---9--9--9-|
|11/12-12/12/12/12/12-12--11-11-|11/12-12/12/12/12/12-12--11-11-9-|
|-------------------------------|---------------------------------|
|-------------------------------|---------------------------------|

|------0-/0-/0-/0-/0--0---0--0--|------0-/0-/0-/0-/0--0---0--------|
|10/12-12/12/12/12/12-12--10-10-|10/12-12/12/12/12/12-12--10---7/9-|
|9-----9-/9-/9-/9-/9--9---9--9--|9-----9-/9-/9-/9-/9--9---9----7/9-|
|11/12-12/12/12/12/12-12--11-11-|10/12-12/12/12/12/12-12--11-9-7/9-|
|-------------------------------|----------------------------------|
|-------------------------------|----------------------------------|

|----------------|--------------|---------------|------------------|
|----------------|--------------|---------------|------------------|
|----------------|--------------|---------------|------------------|
|----------------|--------------|---------0-----|-2p0--2p0--2p0-0h2|
|5-4/4-2-0-2-----|5-4-2-0h2-----|5-4-2-0h2------|----2----2----2---|
|-----------3^-0-|----------3-0-|-----------0h3^|0-----------------|

|--------------|--------------|-----------------|0-------|
|--------------|--------------|-----------------|0-------|
|--------------|--------------|-----------------|4-------|
|---------2----|--------------|-----------------|2-------|
|5-4-2-0h2-----|5-4-2-0h2-----|5-4-2-2p0--------|2-------|
|----------3^-0|----------3^p0|----------3-3^-0-|0-------|

|--------------------------|-----------------------|
|---12---12---12---12---10-|---12---12-14^-14^-----|
|--------------------------|--------------------12^|
|0h12-0h12-0h12-0h12-0h11--|0h12-0h12-0------------|
|--------------------------|-----------------------|
|--------------------------|-----------------------|

|-----12--------------------------------|-----------------------------|
|---15--15-12---------------------------|-----------------------------|
|14^---------14^-14-12-14p12--14p12-----|0h13---------0h13p0----------|
|---------------------------14-----14-12|----12p0-11p0------12p0-11~--|
|---------------------------------------|-----------------------------|
|---------------------------------------|-----------------------------|

|--------------|--------------|----------------|----------------------|
|--------------|--------------|----------------|----------------------|
|--------------|--------------|----------------|--------------2^-2-0--|
|--------------|--------------|----------------|2p0--2p0--2p0---------|
|5-4-2-0h2-----|5-4-2-0h2-----|-5-4-2-0-2------|---2----2-------------|
|---------3^-0-|----------3^--|-----------3^-0-|----------------------|

|--------------|--------------|----------------|---------------|
|--------------|--------------|3-2-0---0-3-----|---------------|
|--------------|--------------|------2^----0---|---------------|
|--------------|--------------|--------------2-|0h2------------|
|5-4-2-0-2-----|5-4-2-0-2-----|----------------|--------5h7p5--|
|----------3^-0|----------3^--|----------------|------0------0-|

[bass solo]
|------------|----------|<12^-------|---------|
|------------|----------|<11^-x-----|---------|
|7/9---------|9---------|-----x-----|---------|
|7/9---------|9h11p9----|-----x-----|---------|
|7-----------|----------|-----------|---------|
|------------|----------|-----------|---------|
                              hand scraping against strings

|---------------|---------------|--------------|---------------------|
|---------------|---------------|--------------|---------------------|
|---------------|---------------|--------------|---------------------|
|---------------|---------------|--------------|2p0--2p0--2--0h2-2-2-|
|5-4-2--0-2-----|5-5-4-2---0----|5-4-2-0-2-----|---2----2------------|
|------0---3^-0-|-----------3^-0|----------3^-0|---------------------|

|------------------------|-------------------12-|
|15-14-12~---------------|15-14-12----15--------|
|----------14^-14-12^----|---------14^---14^----|
|---------------------14-|----------------------|
|------------------------|----------------------|
|------------------------|----------------------|

|----------------------|---------------------------|
|15-14-12~-------------|---------------------------|
|---------14^-14-12^---|---------------------------|
|-------------------14-|14p12--12---12-------------|
|----------------------|-----14---14-----12p10-----|
|----------------------|---------------0-------12\-|

[drum solo]
|----|-------|------|-------|-------|-------|-------|-----------|
|----|9------|------|-------|<12>~--|-------|15^----|-----------|
|----|9------|------|-------|<12>~--|-------|-------|-----------|
|2---|9------|------|-------|<12>~--|-------|-------|--xxx\----0|
|2---|7------|------|-------|-------|-------|-------|7-xxx\----0|
|0---|0----0v|(0)---|-------|-------|-------|-------|--xxx\-----|
           v=push forward on headstock
           while pushing back on body to create low D
                                ~=shake body after open harmonic
                                                     xxx\ pick slide
 G
|---------------|------------|---------------|
|---------------|------------|---------------|
|---------------|------------|---------------|
|3-2-0----3-----|3-2-0-------|3-2-0----3-----|
|------3h5------|------------|------3h5------|
|-----------6^-3|-------6^-3-|-----------6^-3|

                                 [switch to neck pickup]
|--------------------------------|-------------------|---------------|
|--------------------------------|-------------------|--6-6-6-6-6-8--|
|3-5--5-5^ph-5^/5^/5^-5^-5-3^~--5|5>7-7/7/7/7-5-3---3|7--7-7-7-------|
|--------------------------------|----------------5--|---------------|
|--------------------------------|-------------------|---------------|
|--------------------------------|-------------------|---------------|
          ph=pinch harmonic

|-----------------|------------------|------------------|
|15-15-15-/12-3-0-|15-15-15--12--3-3-|15-15-15/12-5-3---|
|15-15-15-/12-3-0-|15-15-15--12--3-3-|15-15-15/12-5-3---|
|15-15-15-/12-3-0-|15-15-15--12--3-3-|15-15-15/12-5-3---|
|-----------------|------------------|------------------|
|-----------------|------------------|------------------|
               [switch back to bridge to pickup]
|---------------|-----------------|----------------------|
|3^---3---------|-----------------|----------------------|
|3^---3-3^------|-----------------|----------------------|
|---5---3^-5-5--|5/5/5/5/5/5/5/3--|5/5/5/5/5/5----3-3-3h5|
|---------------|---------------5-|------------3h5-------|
|--------------3|----------------3|----------------------|

|-----------------|------------|------------|
|-----------------|------------|------------|
|-----------------|--3---3---3-|--3---3---3-|
|--5/5/5/5/5/5p3-0|h5-0h5-0h5-0|h5-0h5-0h5-0|
|---------------5-|------------|------------|
|3----------------|------------|------------|

|-----------------|------------------------|------------------------|
|-----------------|------------------------|------------------------|
|3p0---3p0--------|--3p0---3p0---3p0---3p0-|--3p0---3p0---3p0-------|
|---5p0---5p0-3^-0|h5---0h5---0h5---0h5---0|h5---0h5---0h5---5p0-3p0|
|-----------------|------------------------|------------------------|
|-----------------|------------------------|------------------------|
    G
|------0-/0-/0-/0-/0--0---0--0--|------0-/0-/0-/0-/0--0---0--0---|
|10/12-12/12/12/12/12-12--10-10-|10/12-12/12/12/12/12-12--10-8---|
|------0-/0-/0-/0-/0--0---0--0--|------0-/0-/0-/0-/0--0---0--0---|
|10/12-12/12/12/12/12-12--11-11-|10/12-12/12/12/12/12-12--10-9---|
|-------------------------------|--------------------------------|
|-------------------------------|--------------------------------|

|------0-/0-/0-/0-/0--0---0--0--|------0-/0-/0-/0-/0--0---0--0-------|
|10/12-12/12/12/12/12-12--10-10-|10/12-12/12/12/12/12-12--10-8-------|
|------0-/0-/0-/0-/0--0---0--0--|------0-/0-/0-/0-/0--0---0--0-0/0/0-|
|10/12-12/12/12/12/12-12--11-11-|10/12-12/12/12/12/12-12--10-9-------|
|-------------------------------|------------------------------------|
|-------------------------------|------------------------------------|

|------0-/0-/0-/0-/0--0---0--0--|------0-/0-/0-/0-/0--0---0--0----|
|10/12-12/12/12/12/12-12--10-10-|10/12-12/12/12/12/12-12--10-8----|
|------0-/0-/0-/0-/0--0---0--0--|------0-/0-/0-/0-/0--0---0--0----|
|10/12-12/12/12/12/12-12--10-10-|10/12-12/12/12/12/12-12--10-9--0-|
|-------------------------------|---------------------------------|
|-------------------------------|---------------------------------|

|------0-/0-/0-/0-/0--0---0--0--|------0-/0-/0-/0-/0--0------------|
|10/12-12/12/12/12/12-12--10-10-|10/12-12/12/12/12/12-12--10-8-----|
|------0-/0-/0-/0-/0--0---0--0--|------0-/0-/0-/0-/0--0---0--0-----|
|10/12-12/12/12/12/12-12--10-10-|10/12-12/12/12/12/12-12--10-9-----|
|-------------------------------|----------------------------------|
|-------------------------------|----------------------------------|

=============
litgo@aol.com
  development and support by
dmitry ivanov