rock
 
|tablatures   |lyrics   |discussion forums   |more tabs @ XGuitar.com

The_who tabs

Dogs guitar tab

Dogs
By The Who
>From Two's Missing; Rarities Vol 1; 30 Years of Maximum R&B
 Originally released as single, 1968
Written by Pete Townshend, 1968 Fabulous Music

==============
transcribed by
litgo@aol.com
==============

Capo on 5

Am       577555
Bm       799777
Am7      x7555x
Am7add4  555555
G        xx5787
Em       x79987
D        x57775
C        8x5588
D/F#     x9777x
G/D      x55787
Dsus4    x57785
B5       799xxx
Am7/C    875585 (C6)


[intro]                                      [2/4]      [4/4]   
|Am             |       Bm |Am               |Bm Am Am7 |G     |
|---------------|----------|-----------------|----------|7-----|
|---------------|-------7--|7----------------|7--5--5---|8-----|
|----5-5--5-----|5---5--7--|7-5-5-5--5-----5-|7--5--5---|7-----|
|5-7-5-7--5-7p5-|5-7-5--9--|9-7-5-7--5h7p5-5-|9--7--5---|5-----|
|5-7-----------7|--7-------|--------------7--|----------|------|
|---------------|----------|-----------------|----------|------|

   |Am                          |        Bm
The first time we met you were a kennel maid
   |Am                    |  Am7+4 Am   G
You gave me a tip I got me fore-   cast paid
        |Am                    |             Bm
You were holding a greyhound in trap number one
                                  [2/4]     [4/4]
    |Am                           |Bm Am Am7|G   |
Your white coat was shining in the afternoon sun

         |Em    |D
Now we're both together
     |Em                |D
We're never gonna break apart, no no
              |C            D      |Am
'Cause we're a happy couple you and me
      |C            D     |Am
With a greyhound at either knee

[interlude]                                  [2/4]      [4/4]
|Am             |       Bm |Am               |Bm Am Am7 |G     |
 Ya da da da da...          Ya da da da da...
|---------------|----------|-----------------|----------|7-----|
|---------------|-------7--|7----------------|7--5--5---|8-----|
|----5-5--5-----|5---5--7--|7-5-5-5--5-----5-|7--5--5---|7-----|
|5-7-5-7--5-7p5-|5-7-5--9--|9-7-5-7--5h7p5-5-|9--7--5---|5-----|
|5-7-----------7|--7-------|--------------7--|----------|------|
|---------------|----------|-----------------|----------|------|

[spoken]
I'll have ten shillings to win on Camera Flash, young man.
What dog's that? 
It's a deuce, look at it.

         |G       D/F# |Em   C          |D   Dsus4  |D
There was nothing in my life bigger than beer
There was nothing in my life bigger than beer

        |Em         |D
'Ceptin' you, little darling
        |Em         |D
'Ceptin' you, little darling
       |C            D      |Am
We're a happy couple you and me
      |C            D     |Am
With a greyhound at either knee

We go to the dog track on Saturday nights
We put all our money on a dog that we liked
A kiss and a cuddle, and hot meat pie
Two dollar tickets and a starry sky

There was nothing in my life bigger than beer
There was nothing in my life bigger than beer
'Ceptin' you, little darling
'Ceptin' you, little darling
We're a happy couple you and me
With a baby on either knee

                                           [2/4]      [4/4]
|Am             |       Bm |Am             |Bm Am Am7 |G     |
 Ya da da da da...          Ya da da da da...
|---------------|----------|---------------|----------|7-----|
|---------------|-------7--|7--------------|7--5--5---|8-----|
|----5-5--5-5---|5---5--7--|7-5-5-5--5---5-|7--5--5---|7-----|
|5-7-5-7--7-5-7-|5-7-5--9--|9-7-5-7--5---5-|9--7--5---|5-----|
|5-7----------7-|--7-------|-----------7---|----------|------|
|---------------|----------|---------------|----------|------|

                [2/4]  [4/4]
|Am             |      |Em      |       |B5     |       |
 Ya da da da da...       Oooh...
|---------------|------|
|---------------|------|
|----5-5--5-5---|5---5-|
|5-7-5-7--7-5-7-|5-7-5-|
|5-7----------7-|--7---|
|---------------|------|

        |Em         |D
Yes it's you, little darling,
        |C          |Bm
Yes it's you, little darling,
        |Am7/C      |D
Now it's you, little darling,
        |E    |      
Now it's you.

[loose time; with below]
     E
----|---------------------------------------|
7-9-|9h10p9-----9-10-9-10-12---9------------|etc...
----|-------11---------------11---9--7--9---|
----|---------------------------------------|
----|---------------------------------------|
----|---------------------------------------|

[spoken]
Girl, where's me wage packet; oh, yes, here it is,
Ah, I'll put twenty-five knicker, please, on Gallop Printer
Oh, I hope the wife don't find out.
Yes, it's sure to win, isn't it?
Yes, I know, it's a good dog; I saw it run at White City,
Just last week, broke the record, Gallop Printer.
Nice dog, yes; lovely form, lovely buttocks.

=============
litgo@aol.com
  development and support by
dmitry ivanov