rock
 
|tablatures   |lyrics   |discussion forums   |more tabs @ XGuitar.com

The_who tabs

Do You Think It's Alright? bass tab

Do You think it’s all right the tommy album
Tabbed by Musicianinaction92
Please Rate This


g|---------------------------------------------|
d|3-----2----5-----0-----3---------------------|
a|-----------------------------1---------------|
e|-----------------------------------4--------3|

g|0------0----|---0----0--0|0---0--0----|---0----0--0|
d|"-3-1-3--3-1|3----3----3-|--0--------1|3----3----3-|
a|------------|------------|---------3--|------------|
e|------------|------------|------------|------------|

g|0---0--0----|---0----0--0|-----|-----|---0----0--0|
d|--0--------1|3----3----3-|5-4-3|-----|3----3----3-|
a|---------3--|------------|-----|3-4-5|------------|
e|------------|------------|-----|-----|------------|

g|0------0----|---0----0--0|
d|"-3-1-3--3-1|3----3----3-|
a|------------|------------|x2
e|------------|------------|
	   x3         x12
g|---0----0--0|--------0|----|
d|3----3----3-|3-3-3-3--|----|
a|------------|---------|3---|
e|------------|---------|----|


really easy song
once again please rate this
  development and support by
dmitry ivanov