rock
 
|tablatures   |lyrics   |discussion forums   |more tabs @ XGuitar.com

The_who tabs

Disguises guitar tab

Disguises
By The Who, 1966
>Originally released on Ready Steady Who! EP, 1966
>Appears on A Quick One (remaster), 1995; Magic Bus - The Who On Tour, 1968; 
 Rarities Vol. 1 1966-1969, 1983; 30 Years Box Set, 1994. 
Written by Pete Townshend 1966 Towser Tunes, Inc.

previously transcribed by:
Christian_Korbanka@msn.com
=============
updated by
litgo@aol.com
=============

[intro]         x4
||:E           :||
||-0-0-0--------||
||-5-5-5-4-2-0--||
||.------------.||
||.------------.||
||--------------||
||--------------||

|E          |E               |E         |E       |
   I used to know everything about you
[main gtr strumming pattern]
|--0-0------|-----0----0-----|-----0-0--|-----0-0|
|--0-0------|-----0----0-----|-----0-0--|-----0-0|
|--1-1------|-----1----1-----|-----1-1--|-----1-1|
|-----------|----------------|----------|--------|
|2----------|2---------------|2---------|2-------|
|0----------|0---------------|0---------|0-------|
[bass arranged for gtr]
|-----------|----------------|----------|--------|
|-----------|----------------|----------|--------|
|-----------|-------%--------|---%------|----%---|
|----2------|----------------|----------|--------|
|--2----0-2-|----------------|----------|--------|
|0----------|----------------|----------|--------|

|E                 |E                        |F#                 |
   But today when I tried to point you out to one of my friends
|------------------|-------------------------|-------2--2--------|
|------------------|-------------------------|-------2--2--------|
|--------%---------|------------%------------|-------3--3--------|
|------------------|-------------------------|-------------------|
|------------------|-------------------------|4------------------|
|------------------|-------------------------|2------------------|
|                                                                |
|------------------|-------------------------|-------------------|
|------------------|-------------------------|-------------------|
|--------%---------|------------%------------|-------------------|
|------------------|-------------------------|----------4--------|
|------------------|-------------------------|----4----------2-4-|
|------------------|-------------------------|2------------------|

|F#            |B                    |
   I picked the wrong girl again    
|--------------|---------------------|
|--------------|-----------4-4-------|
|------%-------|-----------4-4-------|
|--------------|-----------4-4-------|
|--------------|2--------------------|
|--------------|---------------------|
|                                    |
|--------------|---------------------|
|--------------|---------------------|
|------%-------|---------------------|
|--------------|------------4---4-2-4|
|--------------|2--------2-----------|
|--------------|---------------------|

|B                     |F#              |
   Don't see you in the crowd anymore
|----------------------|------2--2------|
|----------------------|------2--2------|
|-------%--------------|------3--3------|
|----------------------|----------------|
|----------------------|4---------------|
|----------------------|2---------------|
|                                       |
|----------------------|----------------|
|----------------------|----------------|
|-------%--------------|----------------|
|----------------------|---------4------|
|----------------------|------4-----2-4-|
|----------------------|2---------------|

|F#                      |B                 |
   I think it's you but I can't be sure
|------------------------|------------------|
|------------------------|------4--4--------|
|------%-----------------|------4--4--------|
|------------------------|------4--4--------|
|------------------------|2-----------------|
|------------------------|------------------|
|                                           |
|------------------------|------------------|
|------------------------|------------------|
|------%-----------------|------------------|
|------------------------|---------4---4-2-4|
|------------------------|2-----2-----------|
|------------------------|------------------|

|B                  |E         |
   You're wearing disguises
|-------------------|---0--0---|
|-------------------|---0--0---|
|-------%-----------|---1--1---|
|-------------------|----------|
|-------------------|2---------|
|-------------------|0---------|
|                              |
|-------------------|----------|
|-------------------|----------|
|-------%-----------|----------|
|-------------------|---2------|
|-------------------|------0-2-|
|-------------------|0---------|

|E                        |F#                |B              |Dsus2    |
   Occasionally, a girl surprises me when she turns out to be you
|-------------------------|---2---2----------|---------------|0--------|
|-------------------------|---2---2----------|------4--------|3--------|
|---------%---------------|---3---3----------|------4--------|2--------|
|-------------------------|------------------|------4--------|0--------|
|-------------------------|4-----------------|2-----2--------|---------|
|-------------------------|2-----------------|---------------|---------|
|                                                                      |
|-------------------------|------------------|---------------|---------|
|-------------------------|------------------|---------------|---------|
|---------%---------------|------------------|---------------|---------|
|-------------------------|-------4----------|----------4----|0--------|
|-------------------------|---4------4--2-4--|2------------2-|---------|
|-------------------------|2-----------------|---------------|---------|

|             |E             |E     |E     |E     |
    Wearing disguises
|-------------|0--------0----|------|------|------|
|-------------|0--------0----|------|------|------|
|-------------|1-------------|---%--|---%--|---%--|
|-------------|2-------------|------|------|------|
|-------------|2-------------|------|------|------|
|-------------|0-------------|------|------|------|
|                                                 |
|-------------|--------------|------|------|------|
|-------------|--------------|------|------|------|
|-------------|--------------|---%--|---%--|---%--|
|-------------|------2-------|------|------|------|
|-------------|--0h2----2-0-2|------|------|------|
|-------------|0-------------|------|------|------|

I don't think you want me to see you ever again
And today I saw you dressed as a flower bed
Last week you had a wig on your head
You directed traffic in the street
And your shoes were too big for your feet
You we're wearing disguises
Occasionally, a girl surprises me when she turns out to be you
Wearing disguises

[interlude; verse pattern; horn arranged for gtr]
|E       |E       |E       |E       |E       |E       |
|--------|--------|--------|--------|--------|--------|
|--------|--------|--------|--------|--------|--------|
|--------|--------|--------|--------|--------|--------|
|--2-2-3-|6-7-6-3-|6-2-----|--------|--2-2-3-|6-7-6-2-|
|--------|--------|--------|--------|--------|--------|
|--------|--------|--------|--------|--------|--------|

|F#      |F#      |B       |B           |F#      |F#      |
|--------|--------|--------|------------|--------|--------|
|--------|--------|--------|------------|--------|--------|
|--------|--------|--------|------------|--------|--------|
|4-------|--------|--9-9-10|13-14-13-9--|9-8-----|--------|
|--------|--------|--------|------------|--------|--------|
|--------|--------|--------|------------|--------|--------|


|B       |B       |E       |E       |F#      |B       |
|--------|--------|--------|--------|--------|--------|
|--------|--------|--------|--------|--------|--------|
|--------|--------|--------|--------|--------|--------|
|--9-9-10|9-7-6-2-|2-------|--------|4-------|9-------|
|--------|--------|--------|--------|--------|--------|
|--------|--------|--------|--------|--------|--------|

|D               |         |E       |E       |E       |E       |
|----------------|---------|--------|--------|--------|--------|
|----------------|---------|--------|--------|--------|--------|
|----------------|---------|--------|--------|--------|--------|
|--0h2p0h2p0h2p0h|2p0h2p0h2|--------|--------|--------|--------|
|----------------|---------|--------|--------|--------|--------|
|----------------|---------|--------|--------|--------|--------|

|F#         |F#              |F#      |F#      |
   I used to know everything about you
[bass arr for gtr]
|-----------|----------------|--------|--------|
|-----------|----------------|--------|--------|
|-----------|-------%--------|---%----|----%---|
|----4------|----------------|--------|--------|
|--4----2-4-|----------------|--------|--------|
|2----------|----------------|--------|--------|

|F#                |F#                       |G#                 |   
   But today when I tried to point you out to one of my friends
|------------------|-------------------------|-------------------|
|------------------|-------------------------|-------------------|
|--------%---------|------------%------------|-------------------|
|------------------|-------------------------|----------6--------|
|------------------|-------------------------|-------------6-4-6-|
|------------------|-------------------------|4------------------|

|G#            |C#                 |
   I picked the wrong girl again    
|--------------|-------------------|
|--------------|-------------------|
|------%-------|-------------------|
|--------------|------------6---4-6|
|--------------|4--------4---------|
|--------------|-------------------|

|C#                    |G#                |
   Don't see you in the crowd anymore    
|----------------------|------------------|
|----------------------|------------------|
|-------%--------------|------------------|
|----------------------|---------6--------|
|----------------------|------------6-4-6-|
|----------------------|4-----------------|

|G#                      |C#              |
   I think it's you but I can't be sure
|------------------------|----------------|
|------------------------|----------------|
|------%-----------------|----------------|
|------------------------|---------6---4-6|
|------------------------|4-----4---------|
|------------------------|----------------|

|C#                 |F#        |
   You're wearing disguises
|-------------------|----------|
|-------------------|----------|
|-------%-----------|----------|
|-------------------|---4------|
|-------------------|------2-4-|
|-------------------|2---------|

|F#                       |G#                |C#             |E        |
   Occasionally, a girl surprises me when she turns out to be you
|-------------------------|------------------|---------------|0--------|
|-------------------------|------------------|---------------|0--------|
|---------%---------------|------------------|---------------|1--------|
|-------------------------|-------6----------|----------6----|2--------|
|-------------------------|----6-----6-4--6--|4------------4-|2--------|
|-------------------------|4-----------------|---------------|0--------|
                                                             [guitar]
|            |F#       |E
   Wearing disguises
|            |F#       |E
   Wearing disguises
|            |F#       |E
   Wearing disguises
|            |F#       |E
   Wearing disguises
|            |F#       |E
   Wearing disguises
|            |F#       |E
   Wearing disguises

       (Funny hats, 
        false teeth)

=============
litgo@aol.com
  development and support by
dmitry ivanov