rock
 
|tablatures   |lyrics   |discussion forums   |more tabs @ XGuitar.com

The_who tabs

Coke 2 guitar tab

Coke 2
(P Townshend) from 30 years of maximum R&B
Transcription by Andy Dennis

MAIN RIFF:
----------------------------------------
----------------------------------------
---0---0--------------------------------
---0---0--------------------------------
---x------------------------------------
-3-------3-1---1-1h3-3p1----------------

CHORUS:
Coke after Coke after Coke after Coca-cola
----------------------------------------
----------------------------------------
-7---5--0--7---5--0--7---5--0-----0----0--
-7---5--0--7---5--0--7---5--0---7-0--5-0--
-5---3-----5---3-----5---3------5----3----
----------------------------------------

END



  development and support by
dmitry ivanov