rock
 
|tablatures   |lyrics   |discussion forums   |more tabs @ XGuitar.com

The_who tabs

Cat's In The Cupboard guitar tab

Cat's in the Cupboard
By Pete Townshend
>From Empty Glass, 1980 
Written by Pete Townshend 1980 Eel Pie Publishing Ltd/Towser Tunes Inc.

==============
transcribed by
litgo@aol.com
==============

[approx intro/verse rhythm pattern]
   E
||----------------------||
||----------------------||
||.--------------------.||
||.--2/2/2-0---2/2/2-0-.||
||----------------------||
||-0----(3)--0----(3)---||

E
Cat's in the cupboard, you gotta set it free
E                     D    A     D      A
Cat's in the cupboard, you gotta set it free
G                    Bm7                   A     D A D A
Cat's in the cupboard, you got to set him free, yeah

Rats on the high street, you've got to let 'em be
Rats on the high street, you've got to let 'em be
Rats on the high street, can't you let them be, yeah


  While you're racing, people are wasting
||------7--------5---|-----4----------0---||
||-3/5--------1/3----|--------------------||
||.------------------|-2/4--------0h1----.||
||.------------------|-------------------.||
||-------------------|--------------------||
||-------------------|--------------------||

Life's enthralling, people are calling
While you're weeping, blood is seeping
While you're dancing
                   A.....[repeat verse pattern]
No one's answering me

No, never get an answer

It's cats? It's cool for rats

[repeat]

Noboby's answering me...
                                          No one
||:  Evii Evii  D D |   A/C# A/C#  E E :||
||------------------|-------------------||-------|
||---9----9-----7-7-|---2----2-----0-0--||0--0---|
||.--9----9-----7-7-|---2----2-----1-1-.||1--1---|
||.--9----9-----7-7-|---2----2-----2-2-.||2--2---|
||---7----7-----5-5-|---4----4-----2-2--||2--2---|
||-0----------------|-0-----------------||-------|

=============
litgo@aol.com


  development and support by
dmitry ivanov