rock
 
|tablatures   |lyrics   |discussion forums   |more tabs @ XGuitar.com

The_who tabs

Can't You See I'm Easy guitar tab

Can't You See I'm Easy
By Pete Townshend, 1972
Unreleased

==============
transcribed by
litgo@aol.com
==============

[Note: patterns are approximate]

A7sus4/E     002030  (Em7sus4)
A            x02220
D            xx0232
F#m/C#       244222
G            3x0033
Asus4        x02230

[intro]
|A7sus4/E |A     |A7sus4/E |A     |A7sus4/E
|---------|------|---------|------|---
|---------|------|---------|------|---
|---------|------|---------|------|---
|---------|------|---------|------|---
|---------|------|---------|------|---
|0----0--7|5-----|0----0--7|5-----|0--

[verse]
|A7sus4/E               |A
   Why can't you see I'm easy?
Just take what you need
Why can't you see I'm easy?
Just leave enough for me

[chorus]
       |D      |F#m/C#
I don't care anymore
      |G            |Asus4  |    |A    |     |
I just wandered into war

Why can't you see I'm easy?
There's so very little left
Why can't you see I'm easy?
I need a little rest

I won't fight every game
I just want you in my brain

[interlude]
|A7sus4/E|A      |A7sus4/E|A    |A7sus4/E|A       |A7sus4/E|A       |
|--------|-------|--------|-----|--------|--------|--------|--------|
|--------|-------|--------|-----|--------|--------|--------|--------|
|--------|-------|--------|-----|--------|--------|--------|--------|
|--------|-------|--------|-----|--------|--------|--------|-------2|
|-------2|0------|-------2|4----|-------2|0-------|-------2|4----4--|
|0----0--|---2-3-|0---0---|-----|0----0--|----2-3-|0---3---|--------|

|D      |F#m/C#   |G       |Asus4   |Asus4    |A       |A       |   
|-------|---------|--------|--------|---------|--------|--------|---
|-------|---------|--------|--------|---------|--------|--------|---
|-------|---------|--------|--------|---------|--------|--------|---
|4------|-------4h|5-4-2-0-|4p2-----|4p2-----0|--------|--------|---
|-------|4--------|--------|--------|---------|4-------|--------|---
|-------|---------|--------|--------|---------|--------|----3p2-|0--

Why can't you see I'm easy?
Got no axe to grind
Why can't you see I'm easy?
Even if I ain't your kind

I can't say what went wrong
I was right in every song
I wasn't right, ooh

Why can't you see I'm easy?
Why can't you see?
Why can't you see I'm easy?
I'm easy
Why can't you see I'm easy?
Why can't you see?
Why can't you see I'm easy?

=============
litgo@aol.com
  development and support by
dmitry ivanov