rock
 
|tablatures   |lyrics   |discussion forums   |more tabs @ XGuitar.com

The_who tabs

Batman guitar tab

Batman
As performed by The Who, 1966
Appears on A Quick One (reissue)
Written by Neil Hefti

==============
transcribed by
litgo@aol.com
==============

Note: all patterns approximate.

Tune down whole step: DGCFAD

  D7 (no chord)
||----------------|----------------|----------------|----------------||
||----------------|----------------|----------------|----------------||
||----------------|----------------|----------------|----------------||
||----------------|----------------|----------------|----------------||
||7-7-6-6-5-5-6-6-|7-7-6-6-5-5-6-6-|7-7-6-6-5-5-6-6-|7-7-6-6-5-5-6-6-||
||----------------|----------------|----------------|----------------||
  [palm mute]

  D7
  Batman!             Batman!
||---4-----|--4------|4--4-----|--4-----4-----|
||---3-----|--3-0/3--|3--3-----|--3-0/3---0---|
||---4-----|---------|4--4-----|--4-----------|
||2------0/|2--------|2------2/|2-------------|
||---------|---------|---------|--------------|
||---------|---------|---------|--------------|

 G7                    D7                      
 Batman!               Batman!                 
|3--3-----|--3----3---|---4------|------4-----|
|2--2-----|--2-0/2-2--|---3------|--0/3---3---|
|2--2-----|2-2--------|---4------|------------|
|2--2----2|-----------|2-------2/|2-----------|
|---------|-----------|----------|------------|
|---------|-----------|----------|------------|

 A7               G7               D7
 Batman!          Batman!          Batman!
|----------------|----------------|----------------|----------------|
|----------------|----------------|----------------|----------------|
|----------------|----------------|----------------|----------------|
|----------------|----------------|2-2-1-1-0-0-1-1-|2-2-1-1-0-0-1-1-|
|2-2-1-1-0-0-1-1-|0-0-------------|----------------|----------------|
|----------------|----4-4-3-3-4-4-|----------------|----------------|

  D7
  Batman!         Batman!
||---------|0----|0--------|0----|
||---------|3----|3--------|3----|
||4--------|4----|4--------|4----|
||2------2-|2----|2------2/|2----|
||-------2-|-----|-------2-|-----|
||---------|-----|---------|-----|

 G7                 D7               A7      G7
 Batman!            Batman!          Batman! Batman!
|3---------|3------|0------|0------|5------|3--------|
|2---------|2------|3------|3------|4------|2--------|
|2---------|2------|4------|4------|4------|2--------|
|2---------|2------|2------|2------|4------|2--------|
|----------|-------|-------|-------|-------|---------|
|----------|-------|-------|-------|-------|---------|

 D7
 Batman!
|0--------|0---------|
|3--------|3---------|
|4--------|4---------|
|2--------|2------1-1|
|---------|----------|
|---------|----------|

  [guitar tacit; gtr arr for bass]
||----------------|----------------|----------------|----------------|
||----------------|----------------|----------------|----------------|
||----------------|----------------|----------------|----------------|
||2-2-1-1-0-0-1-1-|2-2-1-1-0-0-1-1-|2-2-1-1-0-0-1-1-|2-2-1-1-0-0-1-1-|
||----------------|----------------|----------------|----------------|
||----------------|----------------|----------------|----------------|

|----------------|----------------|----------------|----------------|
|----------------|----------------|----------------|----------------|
|2-2-1-1-0-0-1-1-|2-2-1-1-0-0-1-1-|----------------|----------------|
|----------------|----------------|2-2-1-1-0-0-1-1-|2-2-1-1-0-0-1-1-|
|----------------|----------------|----------------|----------------|
|----------------|----------------|----------------|----------------|

                                   D7
                                   [gtr reenters]
|----------------|----------------|------4---------|-------------|
|----------------|----------------|------3---------|3------3-3-3-|
|4-4-3-3-2-2-3-3-|2-2-1-1-0-0-1-1-|------4--------1|1------1-1-1-|
|----------------|----------------|2-2---2--------2|2------2-2-2-|
|----------------|----------------|----------------|-------------|
|----------------|----------------|----------------|-------------|

  D7
  Batman!                           Batman!
||--4---4---4---4-|--4---4---4---4-|--4---4---4---4-|--4---4---4---4-|
||--3---3---3---3-|--3---3---3---3-|--3---3---3---3-|--3---3---3---3-|
||--4---4---4---4-|--4---4---4---4-|--4---4---4---4-|--4---4---4---4-|
||2-2-2-2-2-2-2-2-|2-2-2-2-2-2-2-2-|2-2-2-2-2-2-2-2-|2-2-2-2-2-2-2-2-|
||----------------|----------------|----------------|----------------|
||----------------|----------------|----------------|----------------|

 G7                    D7               A7      G7
 Batman!               Batman!          Batman! Batman!
|3-3--3--3-|3-3--3--3-|4-4----|4-4-----|5-5---5---|3-3-3---3---|
|2--2--2--2|2--2--2--2|3-3----|3-3-----|4-4-4-4-4-|2-2-2-2-2-2-|
|2---2--2--|2---2--2--|4-4----|4-4-----|4---4---4-|2-2---2---2-|
|2---------|2---------|2-2---2|2-2-----|4---4---4-|2-2---2---2-|
|----------|----------|-------|--------|----------|------------|
|----------|----------|-------|--------|----------|------------|

 D7
 Batman!
|0-0-------|0----0----|
|3-3-------|3----3----|
|4-4---4-4-|4----4----|
|2-2---2-2-|2----2----|
|----------|----------|
|----------|----------|

=============
litgo@aol.com
  development and support by
dmitry ivanov