rock
 
|tablatures   |lyrics   |discussion forums   |more tabs @ XGuitar.com

The_who tabs

A Legal Matter bass tab

Who - A Legal Matter
Tabbed By: Can
Email: subliminalduck88@hotmail.com

Tuning: Standard (E A D G)



intro/bridge
G|-----------------|-----------------|-----------------|-----------------|
D|-----------------|-----------------|-----------------|-----------------|
A|-----------------|-----------------|-----------------|-----------------|
E|-5-5-5-5-5-5-5-5-|-5-5-5-5-5-5-5-5-|-5-5-5-5-5-5-5-5-|-5-5-5-5-5-5-5-5-|

main line
G|-----------------|-----------------|-----------------|-----------------|
D|-----------------|-----------------|-----------------|-----------------| (x2)
A|---------5-5-7-7-|-----------------|---------5-5-7-7-|-----------------|
E|-5-5-5-5---------|-5-5-5-5-5-5-5-5-|-5-5-5-5---------|-5-5-5-5-5-5-5-5-|

chorus
G|-----------------|-----------------|-----------------|
D|-----------------|-----------------|-----------------|
A|-5-5-7-7---------|-5-5-7-7---4-5-7-|-5-5-7-7---------|
E|---------5-4-2-0-|---------5-------|---------5-4-2-0-|

G|-----------------|-----------------|-----------------|-----------------|
D|-----------------|-----------------|-----------------|-----------------|
A|-5-5-5-5-5-5-5-5-|-7-7-7-7-7-7-7-7-|-----------------|-----------------|
E|-----------------|-----------------|-5-5-5-5-5-5-5-5-|-5-5-5-5-5-5-5-5-|

chorus2
G|-----------------|-----------------|-----------------|
D|-----------------|-----------------|-----------------|
A|-5-5-7-7---4-5-7-|-5-5-7-7---------|-5-5-7-7---4-5-7-|
E|---------5-------|---------5-4-2-0-|---------5-------|

G|-----------------|-----------------|-----------------|-----------------|
D|-----------------|-----------------|-----------------|-----------------|
A|-5-5-5-5-5-5-5-5-|-7-7-7-7-7-7-7-7-|-----------------|-----------------|
E|-----------------|-----------------|-5-5-5-5-5-5-5-5-|-5-5-5-5-5-5-5-5-|

outro
G|-----------------|-----------------|-----------------|-----------------|
D|-----------------|-----------------|-----------------|-----------------|
A|---------5-5-7-7-|---------5-5-7-7-|---------5-5-7-7-|---------5-5-7-7-|
E|-5-5-5-5---------|-5-5-5-5---------|-5-5-5-5---------|-5-5-5-5---------|

G|-----------------|-----------------|-----------------|-----------------|
D|-----------------|-----------------|-----------------|-----------------|
A|-5-5-5-5-5-5-5-5-|-5-5-5-5-5-5-5-5-|-7-7-7-7-7-7-7-7-|-7-7-7-7-7-7-7-7-|
E|-----------------|-----------------|-----------------|-----------------|

G|-----------------|
D|-----------------|
A|-5---5---5---5---|
E|-----------------|

intro
main line
chorus
main line
chorus2
bridge
main line
chorus2
outro
  development and support by
dmitry ivanov