rock
 
|tablatures   |lyrics   |discussion forums   |more tabs @ XGuitar.com

The_doors tabs

Youre Lost Little Girl bass tab

You're Lost Little Girl - The Doors

intro/chorus  
    "you're
 lost little girl" "..are you?"     verse riff (x3)   
G|----------------|----------------|7-----7\-------6-|7-------7---7-7-|
D|----------------|----------------|----7------7-9---|----7-----7-----|
A|--9-7-5-3-------|--5---5---3---7-|--9--------------|--9-------------|
E|0---------7-5-73|3---3---1---5---|---------3-------|------3---------|

  "I think that you know what to do"
G|------------------------------------|
D|------------------33-33-3--77-77-7--|
A|------------------------------------|
E|33-33-3--77-77-7--------------------|

then play the verse riff once and the riff tabbed after it once and go into the chorus.

solo
   (x3)
G|9--7----------9<12>--------|-----------------|
D|-----9--79---7-------7h9p7-|--------33337777-|
A|----9-----7---------------7|-----------------|
E|---------------------------|33-33-33---------|

a tab by Achilles (blue_sincere@hotmail.com)
  development and support by
dmitry ivanov