rock
 
|tablatures   |lyrics   |discussion forums   |more tabs @ XGuitar.com

The_doors tabs

You Make Me Real bass tab

You Make Me Real - The Doors

                        "really need you,"cause I'm not real 
  intro/verse             baby"           enough withou you"
G|-----------------------|--------------|------------|
D|-----------------------|3-33-3-3-33-3-|34555555543-|
A|3-3-3-3-3-3-3-3-simile-|--------------|------------|
E|-----------------------|--------------|------------|

  "oh, what can I do   you make me real"
G|---------------------------------------------------------------------------------------------|
D|------------------------------------------------3-31331-1331331-----------------555555543----|
A|3-31331-1331331-3-31331-1331331-3-31331-1331331--------3-------33-31331-1331331----------3-3-|
E|-------3-------3-------3-------3-------3-------3-----------------------3-------3-------------|

  "make me feel love  make me free"
G|------------------------------------------------------------------|
D|---------3-1-3-1-3-1-3-1-----------------3-1-3-1-3-1-3-1-555555555|
A|3--3-3-3--3-3-3-3-3-3-3-33-1-3-1-3-1-3-1--3-3-3-3-3-3-3-3---------|
E|--------------------------3-3-3-3-3-3-3-3-------------------------|

tabbed by Achilles 
  development and support by
dmitry ivanov