rock
 
|tablatures   |lyrics   |discussion forums   |more tabs @ XGuitar.com

The_doors tabs

Touch Me bass tab

#----------------------------------PLEASE NOTE---------------------------------#
#This file is the author's own work and represents their interpretation of the #
#song. You may only use this file for private study, scholarship, or research. #
#------------------------------------------------------------------------------##




Artist: The Doors
Song: Touch Me
Album: Soft Parade
Tabbed By: Jesus


Intro
|----------------------|
|----------------------|7x
|-0-0-0---0-0---0-3----|
|-------3-----3--------|


|------------------------------------|
|------------------------------------|
|----------5---5---5--2---2---2------|1x
|-----5--3---3---3------3---3---3----|


|---------------------------------------|
|---------------------------------------|
|-3------------------6------------------|
|---0---0-0-1-3-4------3---3-3-4-5-6----|


|-------------------------------------------------|
|-------------------------------------------------|
|-1-1-1--1-1-1--1-1-1------5-5-5--5-5-5--5-5-5----|
|-------------------------------------------------|


|--------------------------------------|
|--------------------------------------|
|-6-----------------9------------------|
|---3---3-3-4-5-6-----6---6-6-7-8-9----|


|----------------------------------------------|
|----------------------------------------------|
|-4-4-4--4-4-4--4-4-4---4-4-4--4-4-4--4-4-4----|
|----------------------------------------------|


|----------------------------------|
|-4----4----4-----3----3----3------|
|----4----4---4------3----3---3----|
|----------------------------------|


|-----------------------|
|---3-4-5-6--4h6p4------|
|-4----------------4----|
|-----------------------|


|----------------------------------|
|-4----4----4-----3----3----3------|
|----4----4---4------3----3---3----|
|----------------------------------|


|-------------------------------------|
|-----3h4h5--6----4h5h6--4-3-1-3-4----|
|-4-4-----------6---------------------|
|-------------------------------------|

|----------------------------------------------|
|----------------------------------------------|
|-4-4-4--4-4-4--4-4-4---4-4-4--4-4-4--4-4-4----|
|----------------------------------------------|

|----------------------|
|----------------------|6x
|-0-0-0---0-0---0-3----|
|-------3-----3--------|


|------------------------------------|
|------------------------------------|
|----------5---5---5--2---2---2------|
|-10-\\5--3---3---3------3---3---3----|


|---------------------------------------|
|---------------------------------------|
|-3------------------6------------------|
|---0---0-0-1-3-4------3---3-3-4-5-6----|


|-------------------------------------------------|
|-------------------------------------------------|
|-1-1-1--1-1-1--1-1-1------5-5-5--5-5-5--5-5-5----|
|-------------------------------------------------|


|--------------------------------------|
|--------------------------------------|
|-6-----------------9------------------|
|---3---3-3-4-5-6-----6---6-6-7-8-9----|


|----------------------------------------------|
|----------------------------------------------|
|-4-4-4--4-4-4--4-4-4---4-4-4--4-4-4--4-4-4----|
|----------------------------------------------|


|----------------------------------|
|-4----4----4-----3----3----3------|
|----4----4---4------3----3---3----|
|----------------------------------|


|-----------------------|
|---3-4-5-6--4h6p4------|
|-4----------------4----|
|-----------------------|

|-------------------------|
|-------------------------|
|-4-4-4--4-4-4--4-4-4-----|
|-------------------------|

|----------------------------------|
|-4----4----4-----3----3----3------|
|----4----4---4------3----3---3----|
|----------------------------------|

|-------------------------------------|
|-----3h4h5--6----4h5h6--4-3-1-3-4----|
|-4-4-----------6---------------------|
|-------------------------------------|

|-------------------------|
|-------------------------|
|-4-4-4--4-4-4--4-4-4-----|
|-------------------------|



Slow Part
|------------------------------|
|-4---4-3---3-4---4-6---6-3----|
|------------------------------|
|------------------------------|


|-----------------5-10-12-13-12-10------|
|-3---3---4---4-3------------------9----|
|---4-----------------------------------|
|---------------------------------------|


|-----------------------------------------|
|------------------------------------6----|
|-4--4---4-----6--6---6---9-8-6--6-9------|
|------4------------6---------------------|

|----------------------------------------------|
|----------------------------------------------|
|-4-4-4--4-4-4--4-4-4---4-4-4--4-4-4--4-4-4----|
|----------------------------------------------|

|----------------------|
|----------------------|
|-0-0-0---0-0---0-3----|(play till the song is over)
|-------3-----3--------|


Im not sure that everything is right and stuff but i was in a hurry
***************************************************************************************
* Generated using Power Tab Editor by Brad Larsen - http://powertab.guitarnetwork.org *
***************************************************************************************
  development and support by
dmitry ivanov