rock
 
|tablatures   |lyrics   |discussion forums   |more tabs @ XGuitar.com

The_doors tabs

The Spy guitar tab

The Spy by the Doors of Morrision Hotel I do believe.

My friend Gerard showed me how to play most of this.
I sort of worked out the middle bit, which is why it's
probably wrong.
Anway enjoy, Paul.

Here is the main riff.

Intro/verse riff:

-------------12----------------------------
-12------------------------------------------
-----12--9-------9--12-------------------------
-----------------------------------------
-----------------------------------------
-----------------------------------------
Play this over and over again.

Their is a small variation that is played once each verse,
work it out yourself.

Chorus:
"I know your deppest secret fear" bit
G  D  E                     A
-3--5--7---------------------5-------------
-3--7--9---------------------5-----------------
-4--7--9--9--11b--9--11b--9--6---------------------
-5--7--9---------------------7---------------
-5--5--7---------------------7--------------
-3---------------------------5-------------

Play the A chord a couple of times at the end.

Outro:
I don't know how to play the outro exactly, just make it up as you go along 
and by playing in the same scale that the intro/verse riff is in.

Comments, corrections, blaa blaaa, sent to me,
Paul, my e-mail is  goonfiend@hotmail.com
  development and support by
dmitry ivanov