rock
 
|tablatures   |lyrics   |discussion forums   |more tabs @ XGuitar.com

The_doors tabs

The Spy bass tab

The Spy - Doors


                                                         "I know the dream.."
G|-------|-----------------|--987-------------------|--------8967----97----------------|
D|-------|----8967----8967-|-----8967-----8967------|89677-77----7-77--97----8967------|
A|-------|7-77----7-77-----|7---------7-77-----7-77-|--------------------7-77----7-77--|
E|70--70-|-----------------|------------------------|----------------------------------|

 
"I know your deepest secret.."  
G|-----------------7-9-799--|------------------------------|
D|----89675-55----9-9-9-----|------------------------------|
A|7-77--------557-----------|-7-7-7-7-(then restart song)--|
E|--------------------------|------------------------------|

  development and support by
dmitry ivanov