rock
 
|tablatures   |lyrics   |discussion forums   |more tabs @ XGuitar.com

The_doors tabs

The Changeling bass tab

The Changeling
By the Doors
Bassist : Jerry Scheff

||----------------------||
||-*------------------*-||
||-*------------------*-||
||---5---5--0-3-0-3-0---||

||----------------------||
||-*------------------*-||
||-*-2---2------------*-||
||----------2-5-2-5-2---||

||----------------------||
||-*------------------*-||
||-*------------------*-||
||---5---5--0-3-0-3-0---||

|-------------------------|
|-------------------------|
|-------------------------|
|-5-5-5---3---0-3-0-3-5---|
                                 x5
||-------------------------------||
||-*---------------------------*-||
||-*---------------3-----------*-||
||---5---5---5-0-3-----5---3-5---||

||----------------||
||-*------------*-||
||-*------------*-||
||---5----3--5----||

||---------------------||
||-*-----------------*-||
||-*-----------------*-||
||---5-5-5-5-5-5-5-5---||

                                 x5
||-------------------------------||
||-*---------------------------*-||
||-*---------------3-----------*-||
||---5---5---5-0-3-----5---3-5---||

OK. You've got approximately all the riffs. I'm to lazy for the moment to do all the details. Here you have the main things.
  development and support by
dmitry ivanov