rock
 
|tablatures   |lyrics   |discussion forums   |more tabs @ XGuitar.com

The_doors tabs

Take It As It Comes bass tab

Take It As It Comes - The Doors

  Verse (x2)
G|--9-9--7--(12)---------10----------9-----|
D|---9--9-5-----(10)12-12------7-5----9----|
A|7------------------------5-57----7---7-7-|
E|-----------------------------------------|

  Chorus (x9)         (x2)
G|---79-------5-97--|-------------|
D|7------79--7----9-|-------------|
A|-----8---7--------|-------------|
E|------------------|5--555-------|

tabbed by Achilles (blue_sincere@hotmail.com)
  development and support by
dmitry ivanov