rock
 
|tablatures   |lyrics   |discussion forums   |more tabs @ XGuitar.com

The_doors tabs

Spanish Caravan bass tab

Spanish Caravan - The Doors

bass comes in at about 0:29 seconds

  intro/chorus
G|--------------------------------------------------4--4--4--4--3--3--3--3--4--4--4--4-
D|910795--9107957454--910795--910795--9107957454---4--4--4--4--3--3--3--3--4--4--4--4-- end  
A|------7-----------7-------7-------7-----------752--2--2--2--3--3--3--3--2--2--2--2--- missing
E|-------------------------------------------------------------------------------------

  verse
G|--------------------44-44--------------------44-44--------------------44-44------------------
D|2-4-5-7-9-10-9-7-4-2--2--2-4-5-7-9-10-9-7-4-2--2--7-9-10-9-5-2-4-5-4-2--2--7-9-10-9-5-2-4-5-4
A|---------------------------------------------------------------------------------------------
E|---------------------------------------------------------------------------------------------

                        end note
------------7--7-------|--------|
2--2--2--2--------10---|9-------|
-----------------------|--------|
-----------------------|--------|

  development and support by
dmitry ivanov