rock
 
|tablatures   |lyrics   |discussion forums   |more tabs @ XGuitar.com

The_doors tabs

Soul Kitchen bass tab

Soul Kitchen - The Doors

r=rest
tr~~~=trill

                        "the cars crawl passed all.."     
                          riff                       "still one place
 intro riff  verse riff               tr~~~~~~~~~~~~  to go" riff
G|--99---7-|------------|---9r-7779--(13-14)13-------|---------|
D|7-------5|---7r-------|7r--------7-----------------|---7-----|
A|----5----|0r----555/10|----------------------------|0r---5557|
E|---------|------------|----------------------------|---------|

Chorus
  intro   main riff end
G|-------|--------|------------------|
D|7777765|--79--57|57----------------|
A|-------|7---5---|--7777777777777777|
E|-------|--------|------------------|

second verse riff
G|---------|
D|---7-----|
A|0r---5557|
E|---------|

solo riff 
G|-----------|
D|---5r-35---|
A|0r------535|
E|-----------|

tabbed by Achilles (blue_sincere@hotmail.com)
  development and support by
dmitry ivanov