rock
 
|tablatures   |lyrics   |discussion forums   |more tabs @ XGuitar.com

The_doors tabs

Someday Soon bass tab

Someday Soon - The Doors

  verse
G|-----9---------6-------9---------6--------6---------------------------------5-----------------
D|3467-----6-74-4-4-3467-----6-74-4-4-44-04-----43---------6-74--4--43-----06--4-67---6764---4--
A|------------------------------------------------55---5--------------55------------------------
E|----------------------------------------------------------------------------------------------

--------------------6------------5------------|
3467---6764---4--04-----43----06---4---4345---|
--------------------------55------------------|
----------------------------------------------|

         "but your going to die"
  "and your going to be needing all of your lies"
G|-------------------------------------------|
D|-------------------------------------------|
A|------7--7--------5--5-----7--57-77-75-3---|
E|5--5--------3--3--------0---------------5-3|

  chorus riff 
  "you'll be all alone.."
G|------7----|
D|-7---------|
A|-----------|
E|-----------|

tabbed by Achilles (blue_sincere@hotmail.com)
  development and support by
dmitry ivanov