rock
 
|tablatures   |lyrics   |discussion forums   |more tabs @ XGuitar.com

The_doors tabs

Ship Of Fools bass tab

Ship Of Fools - The Doors

  intro (x4)   verse riff                  "smog will get you pretty soon"
G|-7-7--75-57-|-57--7---57--57--7-7--75-57-|----------------|
D|--7-----7---|7--07-707--07--7--7-----7---|--------7-7-7-7-|
A|5---5-------|----------------5---5-------|7-7-7-7---------|
E|------------|----------------------------|----------------|

  interlude                                                     "along came Mr. Goodtrips.."
G|-57--7---5-7-9-10\-7-9-10\-7-9-10\-7-9-10\--------------------|----------------------------|
D|7--07-707-7--------------------------------9-9-9--9-9-9--9-9-9|-9-9-9--9-9-9--9-9-9--9-9-9-|
A|--------------------------------------------------------------|--------simile--------------|
E|--------------------------------------------------------------|----------------------------|
  
  solo
G|-------------------------------------------------------------------44-------|
D|----------------------------------------------------------------55-------77-|
A|5-57-8--5-57-8--5-57-8--5-57-8--5-57-8--5-57-8--5-57-8--5-57-8--------77----|
E|----------------------------------------------------------------------------|

the outro is the same as the intro riff




  development and support by
dmitry ivanov