rock
 
|tablatures   |lyrics   |discussion forums   |more tabs @ XGuitar.com

The_doors tabs

Peace Frog bass tab

Peace Frog - Doors

   verse riff     "she came in and.."  "she came to town and..."    (x4)
G|------5-35353---|-------------------|-------------------------|-010421h21---|-----------------|
D|-255-5-------5--|-2---5---4---77-77-|2---5---4---7---6---99-99|2---------2--|222-222-2-2-2-2--|
A|3---------------|-------------------|-------------------------|-------------|-----------------|
E|----------------|-------------------|-------------------------|-------------|-----------------|

          "Indians scattered on dawn's.."         This is sometimes used as the verse riff.
|-------------------------------|               G|------5-353/90-|
|5---5---5---7---------------2--|               D|-255-5---------|
|-----------------\5----\3------|               A|3--------------|
|-------------------------------|               E|---------------|

tabbed by Achilles 
  development and support by
dmitry ivanov