rock
 
|tablatures   |lyrics   |discussion forums   |more tabs @ XGuitar.com

The_doors tabs

My Eyes Have Seen You bass tab

The Doors - My Eyes Have Seen You

Verse
G|-----------------------|
D|-----------------------|
A|-7-7-5-7--------5----7-|
E|--------------7----5---|

Chorus 1
G|---------------------------------------------|
D|---------------------------------------------|
A|-7--7--7--7/------------------10--10--10--10-|
E|--------------10--10--10--10-----------------|

Chorus 2
G|---------7-------|
D|---5-7-9---9-7-5-|
A|-7---------------|
E|-----------------|

Verse-----6x
Chorus 1--1x
Chorus 2--3x
Verse-----2x
Chorus 1--1x
Chorus 2--7x
Chorus 1--1x
Chorus 2--3x
Verse-----4x
Chorus 1--1x
Chorus 2-11x
Chorus 1--1x
Chorus 2--play till it fades

Tabbed by Kevkid420
  development and support by
dmitry ivanov