rock
 
|tablatures   |lyrics   |discussion forums   |more tabs @ XGuitar.com

The_doors tabs

Moonlight Drive bass tab

Moonlight Drive - The Doors

 1st verse
   riff   "let's swim out tonight, love"    bridge  2nd verse/outro  
G|--88----|8-88-6-8-88-6-8-88-6---8-6--6--|--------|--1010----|
D|6-----45|----8-8----8------8-8---8--8-6-|6-6-6-7-|8-------67|
A|----6---|---------------------6---------|--------|------8---|
E|--------|-------------------------------|--------|----------|

"nothing left open..."
G|10-1010--8--10-1010--8--10-1010--8---10--8---8--|
D|-------10-10-------10-10-------10-10---10--10-8-|
A|------------------------------------8-----------|
E|------------------------------------------------|

  solo
G|1010------1010------1010------1010----8-8-6--68-8-6--6--1010------1010----10-10--8---88-8-6--6-
D|------678-------678-------678-------67---8--8----8--8-8-------678-------67-----10--10----8--8-8
A|----8---------8---------8---------8-------------------------8---------8------------------------
E|-----------------------------------------------------------------------------------------------

-1010-----10101010101010|
-------678--------------|
-----8------------------|
------------------------|

tabbed by Achilles (blue_sincere@hotmail.com)
The Bass Tab Archive Army
  development and support by
dmitry ivanov