rock
 
|tablatures   |lyrics   |discussion forums   |more tabs @ XGuitar.com

The_doors tabs

Love Her Madly bass tab

Song: Love her madly
Artist: The Doors
tab: feydakin
--------------
Some parts of my tab don't follow the song exactly,
cause it's tricky. (Manzarek-Keyboards-God!)
All the notes are here though and...this is the only bass
tab of this song on the net. So don't complain, build on it!
/=slide
*=repeat
b=bend
~=hold it for a while

Intro
        x1            x4
G|--------------|-----------|
D|-6/7--7-5-----|-----------|
A|----------7-5-|------5-7--|
E|--------------|--5-8------|

Verse (part A)
       x4          x2          x2
G|-----------|-----------|-----------|
D|-----------|------5-7--|-----------|
A|------5-7--|--5-9------|------5-7--|
E|--5-8------|-----------|--5-8------|

G|--------------------------------------------2-3-7-----7-7-|
D|-----------------------------2-3-----3-3--3-------6-7-----|
A|------------0-2-3-----3-3--3-----0h3----------------------|
E|-5-0-3-5-5--------3-5-------------------------------------|

Verse (part B)
I messed this part up...sorry!
G|---------------------------------------------------------------------------|
D|----------------9-------------------------9-----------------------------9--|
A|--------7---7--7-7----7-----7-----7---7--7-7--------5*----------7---7--7-7-|
E|--5*-5-5-5---------5-5-5-5-5-5-5-5-5------------5*--------5*-5-5-5---------|
The important thing is that you stick to the chords:
(A,E)x2,A,D,A,E,A

Chorus
            x2
G|-----7-------7-|----------------|-----------|
D|---------------|----------------|-----------|
A|-4/5----4/5----|-----3*------5*-|-7-5-------|
E|---------------|-3*------5*-----|-----3-0-5-|
            D      G   C   A   D    E A D G A

Bridge
           x7
G|---|-------------|-----------------------------------2-3-7-----7-7----|
D|---|-------------|--7b~------------------2-3-----3-3-------6-7--------|
A|---|-------55-77-|-------3~-3-----3-3--3-----0h3----------------------|
E|-5*|-55-88-------|------------3-5----------------------------------5*-|

Structure:

Intro
Verse (part A
       part B)
Chorus
Bridge
Chorus
Verse (part A
        & fade out -Am)
  development and support by
dmitry ivanov